PrimaNota.ru - самый крупный в мире бесплатный архив песенных текстов, аккордов, табулатур и нот


Dr Sin - Emotional Catastrophe - текст песни, таба, видео

Регистрация Запомнить меня
Войти через:  Facebook Google Twitter Vk Yandex Mail.ru

Dr Sin - Emotional Catastrophe - текст песни, таба, видео

Печатать
Просмотров: 128
Авторы: Ivan Busic, Andria Busic, Edu Ardanuy

Tom: B
                

Eb||--------------------------------|----------------------------|
Sb||--------------------------------|----------------------------|
Gb||--6-5-4------6-5-4------6-5-4---|----------------------------|
Db||--------7-4--------7-4--------7-|--4-2-----------------------|
Ab||--------------------------------|------4-3-2---2-4---4-------|
Eb||--------------------------------|------------5-----5-2-------|

---------------------------|---------------------------|
---------------------------|---------------------------|
---------------------------|---------------------------|
-----------------5/4-------|-----------------5/4-------|
--2--3--4--0--2--3/2p0-4---|--2--3--4--0--2--3/2p0-4---|
--0--1--2--------------2---|-20--1--2--------------2---|

---------------------------|--------------------------------|
---------------------------|--------------------------------|
---------------------------|--6-5-4-------------------------|
-----------------5/4-------|--------7-4-2-------------------|
--2--3--4--0--2--3/2p0-4---|--------------4-3-2---2-4---4---|
-20--1--2--------------2---|--------------------5-----5-2---|

---------------------------|---------------------------|
---------------------------|---------------------------|
---------------------------|---------------------------|
-----------------5/4-------|-----------------5/4-------|
--2--3--4--0--2--3/2p0-4---|--2--3--4--0--2--3/2p0-4---|
--0--1--2--------------2---|-20--1--2--------------2---|

---------------------------|--------------------------------|
---------------------------|--------------------------------|
---------------------------|--6-5-4-------------------------|
-----------------5/4-------|--------7-4-2-------------------|
--2--3--4--0--2--3/2p0-4---|--------------4-3-2---2-4---4---|
-20--1--2--------------2---|--------------------5-----5-2---|

---------------------------|---------------------------|
---------------------------|---------------------------|
---------------------------|---------------------------|
-----------------5/4-------|-----------------5/4-------|
--2--3--4--0--2--3/2p0-4---|--2--3--4--0--2--3/2p0-4---|
--0--1--2--------------2---|-20--1--2--------------2---|

---------------------------|-----------------------|
---------------------------|-----------------------|
---------------------------|-----------------------|
-----------------5/4-------|-----------------------|
--2--3--4--0--2--3/2p0-4---|--2--3--4--2----0------|
-20--1--2--------------2---|-20--1--2--0-----------|

---------------------------------|--------------------------------|
---------------------------------|--------------------------------|
---------------------------------|--------------------------5p0---|
--5p2---5p2---5p2---5p2----------|--5p2---5p2---5p2-----5p7-------|
------0-----0-----0-----0-5h7--0-|------0-----0-----0-0-----------|
---------------------------------|--------------------------------|

----------------------------------|---------------------------------|
----------------------------------|------------8-7r7-5--------------|
----------------------------------|--------5-7---------5------------|
--3-3-5p3-3-5p3-3-5p3-3-3-5p3/2p0-|--4/5-7---------------7-6-5-4----|
----------------------------------|------------------------------0--|
----------------------------------|---------------------------------|

---------------------------------|--------------------------------|
---------------------------------|--------------------------------|
---------------------------------|--------------------------5p0---|
--5p2---5p2---5p2---5p2----------|--5p2---5p2---5p2-----5h7-------|
------0-----0-----0-----0-5h7--0-|------0-----0-----0-0-----------|
---------------------------------|--------------------------------|

----------------------------------|---------------------------------|
----------------------------------|------------8-7r7p5--------------|
----------------------------------|--------5-7---------5------------|
--3-3-5p3-3-5p3-3-5p3-3-3-5p3/2p0-|--4-5-7---------------7-6-5-4----|
----------------------------------|------------------------------0--|
----------------------------------|---------------------------------|

---------------------------------|---------------------------------|
---------------------------------|---------------------------------|
---------------------------------|---------------------------------|
--5p2---5p2---5p2---5p2----------|--5p2---5p2---5p2---5p2----------|
------0-----0-----0-----0-5h7--0-|------0-----0-----0-----0-5h7--0-|
---------------------------------|---------------------------------|

----------------------------------|---------------------------------|
----------------------------------|------------8-7r7p5--------------|
----------------------------------|--------5-7---------5------------|
--3-3-5p3-3-5p3-3-5p3-3-3-5p3/2p0-|--4-5-7---------------7-6-5-4--2-|
----------------------------------|-------------------------------0-|
----------------------------------|---------------------------------|

----------------------|---------------------------|---------------------------|
----------------------|---------------------------|---------------------------|
----------------------|---------------------------|---------------------------|
-----5---6---7--------|-----------------5/4-------|-----------------5/4-------|
-----3---4---5-----4--|--2--3--4--0--2--3/2p0-4---|--2--3--4--0--2--3/2p0-4---|
-------------------2--|--0--1--2--------------2---|-20--1--2--------------2---|

---------------------------|--------------------------------|
---------------------------|--------------------------------|
---------------------------|--6-5-4-------------------------|
-----------------5/4-------|--------7-4-2-------------------|
--2--3--4--0--2--3/2p0-4---|--------------4-3-2---2-4---4---|
-20--1--2--------------2---|--------------------5-----5-2---|

---------------------------|---------------------------|
---------------------------|---------------------------|
---------------------------|---------------------------|
-----------------5/4-------|-----------------5/4-------|
--2--3--4--0--2--3/2p0-4---|--2--3--4--0--2--3/2p0-4---|
--0--1--2--------------2---|-20--1--2--------------2---|


---------------------------|-----------------------|
---------------------------|-----------------------|
---------------------------|-----------------------|
-----------------5/4-------|-----------------------|
--2--3--4--0--2--3/2p0-4---|--2--3--4--2--------0--|
-20--1--2--------------2---|-20--1--2--0-----------|

---------------------------------|--------------------------------|
---------------------------------|--------------------------------|
---------------------------------|--------------------------5p0---|
--5p2---5p2---5p2---5p2----------|--5p2---5p2---5p2-----5h7-------|
------0-----0-----0-----0-5h7--0-|------0-----0-----0-0-----------|
---------------------------------|--------------------------------|

----------------------------------|---------------------------------|
----------------------------------|------------8-7r7p5--------------|
----------------------------------|--------5-7---------5------------|
--3-3-5p3-3-5p3-3-5p3-3-3-5p3/2p0-|--4-5-7---------------7-6-5-4----|
----------------------------------|------------------------------0--|
----------------------------------|---------------------------------|

---------------------------------|--------------------------------|
---------------------------------|--------------------------------|
---------------------------------|--------------------------5p0---|
--5p2---5p2---5p2---5p2----------|--5p2---5p2---5p2-----5h7-------|
------0-----0-----0-----0-5h7--0-|------0-----0-----0-0-----------|
---------------------------------|--------------------------------|

----------------------------------|---------------------------------|
----------------------------------|------------8-7r7p5--------------|
----------------------------------|--------5-7---------5------------|
--3-3-5p3-3-5p3-3-5p3-3-3-5p3/2p0-|--4-5-7---------------7-6-5-4----|
----------------------------------|------------------------------0--|
----------------------------------|---------------------------------|

---------------------------------|--------------------------------|
---------------------------------|--------------------------------|
---------------------------------|--------------------------5p0---|
--5p2---5p2---5p2---5p2----------|--5p2---5p2---5p2-----5h7-------|
------0-----0-----0-----0-5h7--0-|------0-----0-----0-0-----------|
---------------------------------|--------------------------------|

----------------------------------|---------------------------------|
----------------------------------|------------8-7r7p5--------------|
----------------------------------|--------5-7---------5------------|
--3-3-5p3-3-5p3-3-5p3-3-3-5p3/2p0-|--4-5-7---------------7-6-5-4----|
----------------------------------|------------------------------0--|
----------------------------------|---------------------------------|

----------------------|--------------------|--------8---------------|
----------------------|--------------------|--------8/--------------|
----------------------|--------------------|---------------5--5-----|
--2-----5----6----7---|--8----9------------|---------------5--5-----|
--0-----3----4----5---|--6----7------------|--0--0---------------7--|
----------------------|--------------------|------------------------|

-------------------------|----------------8------|--------------------------|
--------------------8----|--7-------------8------|--------------------------|
-----------7--7--5--7----|--7--------------------|--5--5--------------7--7--|
--5--7--5--7--7--5-------|-----------------------|--5--5--7--5--7--5--7--7--|
-------------------------|-----8----8--8---------|--------------------------|
-------------------------|-----------------------|--------------------------|

------------14/12----------|--------8---------------|--------------------------|
---------------------------|--------8---------------|--------------------8--7--|
--5----7/14----------------|---------------5--5-----|-----------7--7--5--7--7--|
--5------------------------|---------------5--5--7--|--5--7--5--7--7--5--------|
------------------------0--|--0--0------------------|--------------------------|
---------------------------|------------------------|--------------------------|

-----------8------------|----------------------------|
-----------8------------|----------------------------|
------------------5--5--|----------------------------|
------------------5--5--|--7-5-----------------------|
--8--8--8---------------|------7-6-5-3-5-3r3r-----4--|
------------------------|-------------------------2--|

---------------------------|---------------------------|
---------------------------|---------------------------|
---------------------------|---------------------------|
-----------------5/4-------|-----------------5/4-------|
--2--3--4--0--2--3/2p0-4---|--2--3--4--0--2--3/2p0-4---|
--0--1--2--------------2---|-20--1--2--------------2---|

---------------------------|--------------------------------|
---------------------------|--------------------------------|
---------------------------|--6-5-4-------------------------|
-----------------5/4-------|--------7-4---------------------|
--2--3--4--0--2--3/2p0-4---|------------7-4-2-------2-4-0---|
-20--1--2--------------2---|------------------5-2-5---------|

--------------------------------|------------------------------|
--------------------------------|----------------------5-7-----|
------------------7-----6-----5-|------4-------------5---------|
--7p5---5-----------7-----7-----|--5-----5-----0-4-7-----------|
------7---7-8-9-------9-----7---|----5-----5---------------0---|
--------------------------------|------------------------------|

--------------------------------|------------------------------|
--------------------------------|------------------------------|
------------------7-----6-----5-|------4-----------------------|
--7p5---5-----------7-----7-----|--5-----5-----7-5-------------|
------7---7-8-9-------9-----7---|----5-----5-------7-6-5-3-0---|
--------------------------------|------------------------------|

--------------------------------|------------------------------|
--------------------------------|----------------------5-7-----|
------------------7-----6-----5-|------4-------------5---------|
--7p5---5-----------7-----7-----|--5-----5-----0-4-7-----------|
------7---7-8-9-------9-----7---|----5-----5---------------0---|
--------------------------------|------------------------------|

--------------------------------|----------------------------5-|
--------------------------------|----------------------------5-|
------------------7-----6-----5-|------4-----3-----2-----------|
--7p5---5-----------7-----7-----|--5-----5-----3-----3---------|
------7---7-8-9-------9-----7---|----5-----5-----3-----3-------|
--------------------------------|------------------------------|

-------4------------|-11p10-------------------------------------|
-------5------------|-------11---------11-----------------------|
--------------------|----------10p8-------10p8------8----8/7----|
--------------------|---------------10---------10p8---10-----10-|
--------------------|-------------------------------------------|
--------------------|-------------------------------------------|

------------------------------|
------------------------------|
----7-------------------------|
--8---10-8-7------------------|
-------------10-9-8-7-6-------|
------------------------------|

--------12h15-17-19/20/19t17-15-12-22t17-22t17-15-12-20t17-20t17-15-12-20t|
-----13-------------------------------------------------------------------|
--14----------------------------------------------------------------------|
--------------------------------------------------------------------------|
--------------------------------------------------------------------------|
--------------------------------------------------------------------------|

--17-19t15-17t13-17-15-13-12----12----------15-------|
-----------------------------15------15b-------15b---|
-----------------------------------------------------|
-----------------------------------------------------|
-----------------------------------------------------|
-----------------------------------------------------|

---------------------11-15/18----17-18-17-15-17----5-6-|
------------------11-----------------------------------|
---------------12--------------------------------------|
------------13-----------------------------------------|
----6/10h13--------------------------------------------|
-------------------------------------------------------|

--5-3-5-23r------23--------------------------|
---------------------------------------------|
---------------------------------------------|
---------------------------------------12-14-|
------------------------------------12-------|
---------------------------10-12-13----------|

-------------------12-13----12-13/20-----19-18-17-20--|
--------13-15b-----------15b--------------------------|
-----14-----------------------------------------------|
--15--------------------------------------------------|
------------------------------------------------------|
------------------------------------------------------|

--19-20-17----------------------------------|
-----------18-------------------------------|
--------------17/16-------------------------|
--------------------17----------------------|
-----------------------19-15/14----12-------|
--------------------------------15----13----|

--22-19-16-------------------13-16-19-16-19-16-13----------13p12----------|
-----------------------------------------------------------------15-13p12-|
-----------22-19-16-13-16-19----------------------19-16-13----------------|
--------------------------------------------------------------------------|
--------------------------------------------------------------------------|
--------------------------------------------------------------------------|

-----------------15--------------|--------------------------------|
-----------------15r-------------|--------------------------------|
--13-14--------------------------|------------------7-----6-----5-|
---------------------------------|--7p5---5-----------7-----7-----|
-------------------------------0-|------7---7-8-9-------9-----7---|
---------------------------------|--------------------------------|

------------------------------|--------------------------------|
----------------------5-7-----|--------------------------------|
------4-------------5---------|------------------7-----6-----5-|
--5-----5-----0-4-7-----------|--7p5---5-----------7-----7-----|
----5-----5---------------0---|------7---7-8-9-------9-----7---|
------------------------------|--------------------------------|

------------------------------|--------8---------------|
------------------------------|--------8---------------|
------4-----------------------|---------------5--5-----|
--5-----5-----7-5-------------|---------------5--5--7--|
----5-----5-------7-6-5-9-0---|--0--0------------------|
------------------------------|------------------------|

--------------------------|-----------8------------|--------------------------|
--------------------8--7--|-----------8------------|--------------------------|
-----------7--7--5--7--7--|------------------5--5--|--------------7--7--5--7/-|
--5--7--5--7--7--5--------|------------------5--5--|--7--5--7--5--7--7--3-----|
--------------------------|--8--8--8---------------|--------------------------|
--------------------------|------------------------|--------------------------|

------14/-12-----------8----|-------------------------|
-----------------------8----|-------------------------|
--14------------------------|----5--5--------------7--|
----------------------------|----5--5--7--5--7--5--7--|
--------------0--0--0-------|-------------------------|
----------------------------|-------------------------|

--------------------------|--------------------------|
--------8--7--------------|--------------------------|
--7--5--7--7--8--8-----8--|-----8--8-----5--5-----5--|
--7--5--------7--7-----7--|-----7--7-----4--4-----4--|
--------------8--8--8--8--|--8--8--8--8--5--5--5--5--|
--------------------------|--------------------------|

--------------------------|-----------8------------|--------------------------|
--------------------------|-----------8------------|-----------------------8--|
-----5--------------------|------------------5--5--|--------------7--7--5--7--|
-----4--------------------|------------------5--5--|--7--5--7--5--7--7--5-----|
--5--5--0--3--5/-6/-5--3--|--0--0--0---------------|--------------------------|
--------------------------|------------------------|--------------------------|

-----------||
----7------||
----7------||
-----------||
-----------||
-----------||

Добавлено: 20.03.2012
Другие материалы по этой песне:

Страница создана 20.03.2012
http://primanota.ru/dr-sin/emotional-catastrophe-chords.htm
Привет, Гость.
Предлагаем пройти революционный курс по гитаре.
Подарок от PrimaNota.Ru, забирай!