PrimaNota.ru - самый крупный в мире бесплатный архив песенных текстов, аккордов, табулатур и нот


Dr Sin - Cest La Vie - таба, видео

Регистрация Запомнить меня
Войти через:  Facebook Google Twitter Vk Yandex Mail.ru

Dr Sin - Cest La Vie - таба, видео

Печатать
Просмотров: 123
Tom: D


Intro - D - E4/D 4x D - G - Em - D/F# - G 2x


e---------------------------------------------------------------------------|
B|---------------------8/10---8--7---8p7------------------------------------|
G|-------------7--------------------------7-----9~-7--9~-7--9~-7--------7~--|
D|-------7h9------9-------------------------7----------------------7h9------|
A|--7h9---------------------------------------------------------------------|
E|--------------------------------------------------------------------------|



e----------------------------------------------------------------------------------|
B|---------------------8/10---8--7---8p7-------------------------------------------|
G|-------------7--------------------------7-----9~-7--9~-7--9~-7---9b11^9p7----7~--|
D|-------7h9------9-------------------------7--------------------------------9-----|
A|--7h9----------------------------------------------------------------------------|
E|---------------------------------------------------------------------------------|


D                       A                   F#m
Still feel the rain and the wind in my face
                  E
In the streets of Paris
D                               A               F#m
The glamour and lights brought tears to my eyes
                  E
As the tower was pointing the sky
D                 A             F#m
All the beauty of this paradise
                          E
Was healing the pain I was feeling inside
D                         A        F#m
Suddenly all the battles I've lost
                           E               E E
Started to make sense and I heard a voice


e------------------------------------------------------|
B|-----------------------------------------------------|
G|---------------------4/6--4--------------------------|
D|-----------2/4--2--------------6h7p6p4--6--2/4--6----|
A|--2/4--2---------------------------------------------|
E|-----------------------------------------------------|



e-----------------------------------------------------------------|
B|----------------------------------------------------------------|
G|---------------------4/6--4-------------------------------------|
D|-----------2/4--2--------------6h7p6p4--6--2h4-2------------0---|
A|--2/4--2------------------------------------------4-2-----------|
E|-------------------------------------------------------4-2------|


D  G        Em D/F# G
    C'est La Vie
D  G       Em D/F# G
    C'est La Vie

D                  A                 F#m
A magical mon reflected on the river
                           E
Inspider me to fight for my dreams once again
D                               A                      F#m
I've been carryng the weight of my past for too long
                                 E
But the bells broke the cilence to tell I was wrong

E
Eventually we shall fall
E
And when it happens we brave and rise

D  G        Em D/F# G
    C'est La Vie
D  G       Em D/F# G
    C'est La Vie

SOLO (E - D)

D-E4/D 4x (Trecho da intro)

D  G        Em D/F# G
    C'est La Vie
D  G       Em D/F# G
    C'est La Vie  (Até acabar no fade out)
Добавлено: 20.06.2012
Другие материалы по этой песне:
  • Аккорды и текст

Страница создана 20.06.2012
http://primanota.ru/dr-sin/cest-la-vie-chords.htm
Привет, Гость.
Предлагаем пройти революционный курс по гитаре.
Подарок от PrimaNota.Ru, забирай!