PrimaNota.ru - самый крупный в мире бесплатный архив песенных текстов, аккордов, табулатур и нот


Dr Manhattan - Traceys Buns - таба, видео

Регистрация Запомнить меня
Войти через:  Facebook Google Twitter Vk Yandex Mail.ru

Dr Manhattan - Traceys Buns - таба, видео

Печатать
Просмотров: 108
“Tracey's Buns” by Dr. Manhattan
Tabbed by: Bryce Hower (HowerPower)

This basically loops the entire song.
Gtr I (E A D G B E) 
  4/4
   Gtr I
    Q  Q   Q  Q    Q  Q  Q  Q     Q  Q   Q  Q    Q  Q  Q  Q
||---------------|-------------|---------------|------------|
||-12-----12-----|-5-----5-----|-12-----12-----|-5-----5----|
||-----0------0--|----0-----0--|-----0------0--|----0-----0-|
||---------------|-------------|---------------|------------|
||-10-----10-----|-3-----3-----|-10-----10-----|-3-----3----|
||---------------|-------------|---------------|------------|


   Q  Q   Q  Q    Q  Q  Q  Q   Q  Q  Q  Q   Q  Q  Q  Q
|---------------|------------|------------|---------------||
|-12-----12-----|-5-----5----|-7-----7----|-5-----5-------||
|-----0------0--|----0-----0-|----0-----0-|----0-----0----||
|---------------|------------|------------|---------------||
|-10-----10-----|-3-----3----|-5-----5----|-3-----3-------||
|---------------|------------|------------|---------------||

The Chord played at the very end is a G major.
Добавлено: 22.06.2012
Другие материалы по этой песне:
  • Аккорды и текст

Страница создана 22.06.2012
http://primanota.ru/dr-manhattan/traceys-buns-chords.htm
Привет, Гость.
Предлагаем пройти революционный курс по гитаре.
Подарок от PrimaNota.Ru, забирай!