PrimaNota.ru - самый крупный в мире бесплатный архив песенных текстов, аккордов, табулатур и нот


Dr Kucho Gregor Salto - Cant Stop Playing - таба, видео

Регистрация Запомнить меня
Войти через:  Facebook Google Twitter Vk Yandex Mail.ru

Dr Kucho Gregor Salto - Cant Stop Playing - таба, видео

Печатать
Просмотров: 87
Уроки эстрадного вокала в Санкт-Петербурге
Сan't stop playing (Oliver Heldens & Gregor Salto remix)


Capo 1st fret.
I'm sorry, but you have to do the rhythm yourself. This is my first tab, please be understanding.
E |----------------------------|----------------------------|
B |--------3-------------------|----------------------------|
G |--------------------0--2----|--3-----------------0--2----|
D |--0--0-----0--3--3----------|-----------------3----------|
A |----------------------------|-----1--1--1--1-------------|
E |----------------------------|----------------------------|


----------------------------|----------------------------|
----------------------------|----------------------------|
--3-----2-----0--------2----|--0-----------2--0----------|
--------------------3-------|-----3--0-------------------|
-----1-----0----------------|-----------3--------0--3----|
-----------------3----------|----------------------------|


----------------------------||
--------------3-------------||
----------------------------||
--0--0--0--0-----0--3--3----|| (AND REPEAT)
----------------------------||
----------------------------||
Добавлено: 29.12.2015
Другие материалы по этой песне:
  • Аккорды и текст

Страница создана 29.12.2015
http://primanota.ru/dr-kucho-gregor-salto/cant-stop-playing-chords.htm
Привет, Гость.
Предлагаем пройти революционный курс по гитаре.
Подарок от PrimaNota.Ru, забирай!