PrimaNota.ru - самый крупный в мире бесплатный архив песенных текстов, аккордов, табулатур и нот


Dr Hook - Sharing The Night - таба, видео

Регистрация Запомнить меня
Войти через:  Facebook Google Twitter Vk Yandex Mail.ru

Dr Hook - Sharing The Night - таба, видео

Печатать
Просмотров: 120
Уроки эстрадного вокала в Санкт-Петербурге
by John Hoac, johnzo_33@yahoo.com)

Verse:  E, C#m7, A, B
	F#m, G#m, (F#m, G#m, A)
	
Chorus: E, C#m7, A, B

Bridge: C#m, G#m, A, B, B/C
        C#m, G#m, A, A, B, B, A, B


    E (play D-shape)  C#m7            A              B

|------4----2s4----------4-----4--------5---2-5--------2---2----------|
|---------------5------------7---7--------------2------------4--------|
|-----------------4----------------4---------------------------4------|
|----------------------------------------------------------------4----|
|---------------------4----4----------0---0----------2---2------------|
|---0----0------------------------------------------------------------|


    E       C#m7       A      B

|-----4--2----2---2s4--2-4-4----2---0-2-2---|
|-----5--0----5---0-0--2-2-2--4-------------|
|-----4--1----4--------2-2-2--4-------------|   (Chorus)
|-------------------------------------------|
|-----------4---4------0-0-0--2---2---------|
|---0----0----------------------------------|


Lyrics
======
You're looking kinda lonely girl
Would you like someone new to talk to
Ah-yeh, alright
I'm feeling kinda lonely too
If you don't mind can I sit down here beside you
Ah-yeah, alright

If I seem to come on too strong
I hope that you will understand
I say these things 'cause I'd like to know
If you're as lonely as I am and if you mind
Sharing the night together
Oh-yeah, sharing the night together
Oh-yeah, sharing the night

We could bring in the morning girl
If you want to go that far
And if tomorrow find us together
Right here the way we are would you mind
Sharing the night together
Oh-yeah, sharing the night together
Oh-yeah, sharing the night

Would you like to dance with me and hold me
You know I want to be holding you
Ah-yeah, alright
'Cause I like feeling like I do
And I see in your eyes that you're liking and i'm liking it too
Ah yeah, alright
Like to get to know you better
Is there a place where we can go
Where we can be alone together
And turn the lights down low
And start sharing the night together
Oh-yeah, sharing the night together
Oh-yeah, sharing the night together
Oh-yeah, sharing the night
Добавлено: 22.06.2012
Другие материалы по этой песне:
  • Аккорды и текст

Страница создана 22.06.2012
http://primanota.ru/dr-hook/sharing-the-night-chords.htm
Привет, Гость.
Предлагаем пройти революционный курс по гитаре.
Подарок от PrimaNota.Ru, забирай!