PrimaNota.ru - самый крупный в мире бесплатный архив песенных текстов, аккордов, табулатур и нот


Dr Feelgood - Shes A Wind Up - аккорды и текст, таба, видео

Регистрация Запомнить меня
Войти через:  Facebook Google Twitter Vk Yandex Mail.ru

Dr Feelgood - Shes A Wind Up - аккорды и текст, таба, видео

Печатать
Просмотров: 89
Shes A Wind Up
Dr Feelgood
Intro:
E-/8-8-8-8-/8-8-8-8-/8-8-8-8-/8-8-8-8--|
B-/7-7-7-7-/7-7-7-7-/7-7-7-7-/7-7-7-7--|
G--------------------------------------|
D--------------------------------------|
A--------------------------------------|
E--------------------------------------|

Chorusriff:
E--------------------------------|
B--------------------------------|
G--------------------------------|
D-7-7-7-7-7----------------------|
A-5-5-5-5-5-4-2-0-0-4-0-7-0-4-0--|
E--------------------------------|

E
She's got a fine lookin' figure
A                    (Play the two notes from the intro.)                   
When she's walkin' down the street
E
She gives a quick 'see you later'
A
To all the guys she meets
A                            C#
I wanna hear her moan when I get her alone
D                                Eb          E
When the action starts she says 'i got to go home'

D                        A
She's a wind up, wind up
D                        A
She's a wind up, wind up
D                        A
She's a wind up, wind up
A  (break)                                         (play intro)
For I'd say okay but they don't mean what they say

She wears the low-cut dresses
And a high-heeled shoes
She was born to make it
I was born to lose
She makes the blackout sounds till the light goes down
And when I make a move she ain't nowhere around

She's a wind up, wind up
She's a wind up, wind up
She's a wind up, wind up
For I'd say okay but they don't mean what they say

Guitarsolo

Fine lookin' figure
Oh when she's walkin' down the street
She gives a quick 'see you later'
To all the guys she meets
I wanna hear her moan when I get her alone
When the action starts she says 'i got to go home'

She's a wind up, wind up
She's a wind up, wind up
She's a wind up, wind up
For I'd say okay but they don't mean what they say

She's a wind up, wind up
She's a wind up, wind up... 

Guitarsolo:
E-7/14-14-14-/14-14-14-12-10-12-10-12-10-9---|
B-8/15-15-15-/15-15-15-14-12-14-12-14-12-10--|
G--------------------------------------------| X3 (on the record he plays
D--------------------------------------------|     kinda sloppy the second
A--------------------------------------------|      time.)
E--------------------------------------------|

E---------------------|
B----2---3----4----5--|
G-4b---5b--6b---7b----|(not really sure about that last line.)
D---------------------|
A---------------------|
E---------------------|
Добавлено: 01.03.2012
Другие материалы по этой песне:

Страница создана 01.03.2012
http://primanota.ru/dr-feelgood/shes-a-wind-up-chords.htm
Привет, Гость.
Предлагаем пройти революционный курс по гитаре.
Подарок от PrimaNota.Ru, забирай!