PrimaNota.ru - самый крупный в мире бесплатный архив песенных текстов, аккордов, табулатур и нот


Dr Dre - Keep Their Heads Ringin - текст песни, бас-таба, видео

Регистрация Запомнить меня
Войти через:  Facebook Google Twitter Vk Yandex Mail.ru

Dr Dre - Keep Their Heads Ringin - текст песни, бас-таба, видео

Печатать
Просмотров: 159
Verse:

G|----------------------------------------------------------------------|
D|----------------------------------------------------------------------|
A|--0-----------------------0-------------------------------------------|
E|--------1------0--------------------1----------0----------------------|

G|----------------------------------------------------------------------|
D|----------------------------------------------------------------------|
A|--0-----------------------0-------------------------------------------|
E|--------1------0--------------------1----------0----------/8----------|


Synth Part 


G|-----------------------7-----5-----------------------7-----5-----------|
D|----7------------------------------7-----------------------------------|
A|---------8-----7-------------------------8-----7-----------------------|
E|-----------------------------------------------------------------------|

This song is in A Minor.
Добавлено: 09.03.2012
Другие материалы по этой песне:

Страница создана 09.03.2012
http://primanota.ru/dr-dre/keep-their-heads-ringin-chords.htm
Привет, Гость.
Предлагаем пройти революционный курс по гитаре.
Подарок от PrimaNota.Ru, забирай!