PrimaNota.ru - самый крупный в мире бесплатный архив песенных текстов, аккордов, табулатур и нот


Dr Dog - Today - таба, видео

Регистрация Запомнить меня
Войти через:  Facebook Google Twitter Vk Yandex Mail.ru

Dr Dog - Today - таба, видео

Печатать
Просмотров: 119
Artist: Dr. Dog
Song: Today
Album: Easy Beat (Park the Van Records 2005)
Tabbed by Howard: witmachine@yahoo.com

These are the bare bones of the song.  the picking in the verse is a simple lil thing 
chords.
I'm also working on the solo.  The solo has two guitars in it so it's a little difficult 
transcribe...

INTRO
	A   Bm   E   A
	C#m F#   Bm  E

VERSE 1
      A   Bm	E	      A
It's all here. Today is the only day.

     C#m		    F#		Bm	E4  E
The old times make way for the new.

      A     Bm	   E		A
Some fruit punch spills on a tablecloth

     C#m		    F#		  Bm	E
But there ain't no mess to clean up

CHORUS
git 1
   Dmaj7			E		A
e----14----14----14---12----12----12-|----9-----9-------9-----9-----|
B------14----14---------12----12-----|------10----10------10----10--|
G--14----14----14---13----13----13---|--9-----9-----9-9-----9-----9-|
D------------------------------------|------------------------------|
A------------------------------------|------------------------------|
E------------------------------------|------------------------------|
git 2
   Dmaj7			E		A
e------------------------------------|----9-----9-------9-----9-----|
B-----7-----7-----7----9-----9-----9-|------10----10------10----10--|
G-------7-----7----------9-----9-----|--9-----9-----9-9-----9-----9-|
D---7-----7-----7----9-----9-----9---|------------------------------|
A------------------------------------|------------------------------|
E------------------------------------|------------------------------|

Garbage in a can sticks together
The tiniest of things are forever
Drop a couple coins and a feather
And watch them float away at the same time

VERSE 2
 A   	Bm	  E	      A
Song is made with sugar and lemonade
 C#m	    F#		  Bm   E
Sing on the porch, swing along
 A      Bm  E	     A
Me and you having a barbecue
 C#m	      F#	  Bm	E
Sticking our thumbs in the air

CHORUS
git 1
e----14----14----14---12----12----12-|----9-----9-------9-----9-----|
B------14----14---------12----12-----|------10----10------10----10--|
G--14----14----14---13----13----13---|--9-----9-----9-9-----9-----9-|
D------------------------------------|------------------------------|
A------------------------------------|------------------------------|
E------------------------------------|------------------------------|
git 2
e------------------------------------|----9-----9-------9-----9-----|
B-----7-----7-----7----9-----9-----9-|------10----10------10----10--|
G-------7-----7----------9-----9-----|--9-----9-----9-9-----9-----9-|
D---7-----7-----7----9-----9-----9---|------------------------------|
A------------------------------------|------------------------------|
E------------------------------------|------------------------------|

Meeting of some notes on a pocket
Sitting in the sun with some chocolate
Drop a couple pens and some pencils
And watch it all fall right into place


that's about it for chords...
Добавлено: 17.04.2012
Другие материалы по этой песне:
  • Аккорды и текст

Страница создана 17.04.2012
http://primanota.ru/dr-dog/today-chords.htm
Привет, Гость.
Предлагаем пройти революционный курс по гитаре.
Подарок от PrimaNota.Ru, забирай!