PrimaNota.ru - самый крупный в мире бесплатный архив песенных текстов, аккордов, табулатур и нот


Dr Dog - The Breeze - аккорды и текст, таба, видео

Регистрация Запомнить меня
Войти через:  Facebook Google Twitter Vk Yandex Mail.ru

Dr Dog - The Breeze - аккорды и текст, таба, видео

Печатать
Просмотров: 168
The Breeze
Dr Dog
-----------------------------------------------------------------------
                          Dr. Dog – The Breeze
-----------------------------------------------------------------------

Song – The Breeze
Album – Fate (2008)

Tabbed by: Taylor Berce 
Email: tay_leafs@hotmail.com

Tuning: Standard

Opens with a random picking out of an open A chord

A 
Are you moving much too fast?
C#m
And the good times that just don't last
D
If you're always on the go
E
Make an angel in the snow
    A
And freeze

A
Do you feel like you're stuck in time?
C#m
Forever waiting on that line
D
If nothing ever moves
E
Put that needle to the groove
    A
And sing

A
Is it a dream keeping you awake?
C#m
Is it the stillness that makes you shake?
D
If you need to know for sure
E
What's on the ocean's floor
       A
You'll sink

A
Do you like things the way they seem?
C#m
Or are you looking behind the scenes?
D
Well, if you've gotta know
E
What it takes to make it sow
     A
Just believe

Are there dark parts to your mind?
Hidden secrets left behind?
Where no one ever goes
But everybody knows
It's all right

A
Do you get dizzy on the ground?
C#m
It must be something going 'round
D
What blows us here today
E
It'll blow us all away,
     A
The breeze

C#m
Ahh, will blow us all away
       A
The breeze
C#m 
Ahh, will blow us all away
       A
The breeze

Ends with 

e|---5-------------5------------4------------4------------------------------|
B|------5-------------5------------5------------5---------------------------|
G|---------6-------------6------------6------------6------------------------|
D|------------7-------------7------------6------------6---------------------|
A|--------------------------------------------------------------------------|
E|--------------------------------------------------------------------------|


Добавлено: 17.06.2012
Другие материалы по этой песне:
  • Аккорды и текст

Страница создана 07.03.2012
http://primanota.ru/dr-dog/the-breeze-chords.htm
Привет, Гость.
Предлагаем пройти революционный курс по гитаре.
Подарок от PrimaNota.Ru, забирай!