PrimaNota.ru - самый крупный в мире бесплатный архив песенных текстов, аккордов, табулатур и нот


Dr Dog - Oh No - таба, видео

Регистрация Запомнить меня
Войти через:  Facebook Google Twitter Vk Yandex Mail.ru

Dr Dog - Oh No - таба, видео

Печатать
Просмотров: 138
-Oh No-
-Dr. Dog-
---------

Intro:
     A x3   D x3
e|---5-5-5----------|
B|---5-5-5--7-7-7---|
G|---6-6-6--7-7-7---|
D|---7-7-7--7-7-7---|
A|---7-7-7--5-5-5---|
E|---5-5-5----------|


A
If the dead make a sound
      F#m
I can put my ear on the ground
               A A
And sing along now

Sing along now
A
We were peas in a pod
      F#m
Gotta thank almighty god
               A A
That we're together

We're together
   F
Oh No 

Riff 1
e|-----------------------|
B|-----------------1-----|
G|---------0-0-2-2---2---|
D|-0-0-2-2---------------|
A|-----------------------|
E|-----------------------|
   F
Oh No

Riff 2
e|-----------------------|
B|-----------------------|
G|---------0-0-2-2-------|
D|-0-0-2-2---------------|
A|-----------------3--0--|
E|-----------------------|


From a glance in the air
You can see whats way up there
In the stars now
In the stars now           
Theres no reason or rhyme
That can keep up with the time
So run along now
Run along now
   F
Oh No

Riff 1
   F
Oh No

Riff 2
   F
Oh No

Riff 1

-Violin Break-

C#m                         
Heartbreak, it looks like a snake
       F#m
In the Grass, Oh No
        Am
Lalalalala Oh No
C#m    
Sweet dreams falling asleep
       F#m
At the wheel again
        Am
Lalalalala Oh No
   G#
Oh No
  F# 
Alright

Come on G G# G G#

E F#7 E E F#7 E

Riff 3
e|-------4-3-2--------2-1-0------|
B|-------------------------------|
G|-2-3-4--------4-3-2---------2--|
D|-------------------------------|
A|-------------------------------|
E|-------------------------------|

E

Riff 3

Sing Riff 3 over E and F# chords out. 




Добавлено: 21.06.2012
Другие материалы по этой песне:
  • Аккорды и текст

Страница создана 21.06.2012
http://primanota.ru/dr-dog/oh-no-chords.htm
Привет, Гость.
Предлагаем пройти революционный курс по гитаре.
Подарок от PrimaNota.Ru, забирай!