PrimaNota.ru - самый крупный в мире бесплатный архив песенных текстов, аккордов, табулатур и нот


Dr Dog - Heaven - аккорды и текст, видео

Регистрация Запомнить меня
Войти через:  Facebook Google Twitter Vk Yandex Mail.ru

Dr Dog - Heaven - аккорды и текст, видео

Печатать
Просмотров: 112
Heaven
Dr Dog
| F#m | F#m | E7M   | E7M   G#dim |
| F#m | F#m | E7M   | E7M   G#dim |x infinty...
Standard Tuning.

(If you're feeling funky, you can play this with a capo on the 2nd fret 
[recommended] and do these chords: Em D7M   F#dim...)



Chords(Standard Tuning):
  F#m   E7M     G#dim
e--2------0-------7---|
B--2------0-------6---|
G--2------1-------7---|
D--4------1-------6---|
A--4------2-----------|
E--2------0-----------|

Chords(Capo 2nd Fret - played as if you play with no capo):
  Em    D7M     F#dim
e--0------2-------5---|
B--0------2-------4---|
G--0------2-------5---|
D--2------0-------4---|
A--2------------------|
E--0------------------|
Добавлено: 09.09.2013
Другие материалы по этой песне:
  • Аккорды и текст

Страница создана 09.09.2013
http://primanota.ru/dr-dog/heaven-chords.htm
Привет, Гость.
Предлагаем пройти революционный курс по гитаре.
Подарок от PrimaNota.Ru, забирай!