PrimaNota.ru - самый крупный в мире бесплатный архив песенных текстов, аккордов, табулатур и нот


Dr Dog - Goner - таба, видео

Регистрация Запомнить меня
Войти через:  Facebook Google Twitter Vk Yandex Mail.ru

Dr Dog - Goner - таба, видео

Печатать
Просмотров: 123
-Goner-
-Dr. Dog-
---------------
Piano Song, not easy to translate to guitar. 
You run into this around "If I was a goner..." at the end of the verses. 
If you can figure out the lyric where I have dashed lines, please let me know!
All Bar Chords except "E"

Intro- "E" played up the paino

E                             F#m
Hey, save upon the undertaker bill
                                 G#         C#m
Throw me in the ocean where the water turns still
              C#m7             C#
My blood will rust and dust to dust
E                             F#m
Hey, save upon the undertaker bill
                                G#       C#m
Throw me in the backyard, out behind the still
             C#m7           C#
Just sort me out, or let me rot
           F#             F#7       
If I was a goner before I came into the room
        Ebm            D             B
I was a goner before I came into the room

G#                 C#m     Am    
Simple things that I -------
    E                           B
So Ive been knocked down and Ill tie my shoe
      G#               C#m    Am
I was born a boy but became a man
            E             B
And gettin older is what I had to do
        E                   B              E
Oh and learn the things I already knew


Hey save upon the undertaker bill
Throw me to the wolves, let em have their fill
My bones will bust, don't make no fuss
If I was a goner before I came into the room
I was a goner before I came into the room

Simple things that I -------
So I've been knocked down and I'll tie my shoe
I was born a boy but became a man
And gettin older is what I had to do
Oh and learn the things I already knew

Riff:
e|--------------------------------------------------------------------|
B|----------7-9/------------------------------7-9/--------------------|
G|--------9---------------------------------9-------------------------|
D|--6-7-9-----------------------------6-7-9---------------------------|
A|----------------12-7/2----------------------------12-7/2------------|
E|-----------------------2-0-2~-0--------------------------2-0-2~-0---|

e|-------------------------------------------------|
B|-------------------------------------------------|
G|-------------------------------------------------|
D|----6-9---6-9----6-9---6-9-/---------------------|
A|--9-----9------9-----9---------12-7/2------------|
E|--------------------------------------2-0-2~-0---|

e|------------------------------------|
B|----------7-9/17-17-17-17-17-17-17--|
G|--------9---------------------------|
D|--6-7-9-----------------------------|
A|------------------------------------|
E|------------------------------------|

E A x4

e|--------------------|
B|--------------------|
G|--------------6-----| x3 (end on -9-)
D|--9-6-9-6-9-6---6---|
A|--------------------|
E|--------------------|
Добавлено: 29.06.2012
Другие материалы по этой песне:
  • Аккорды и текст

Страница создана 29.06.2012
http://primanota.ru/dr-dog/goner-chords.htm
Привет, Гость.
Предлагаем пройти революционный курс по гитаре.
Подарок от PrimaNota.Ru, забирай!