PrimaNota.ru - самый крупный в мире бесплатный архив песенных текстов, аккордов, табулатур и нот


Dr Dog - Going Home - таба, видео

Регистрация Запомнить меня
Войти через:  Facebook Google Twitter Vk Yandex Mail.ru

Dr Dog - Going Home - таба, видео

Печатать
Просмотров: 110
-Going Home-
-Dr. Dog-
------------

Intro: F Am Dm Bbm F 

Riff 1:
e|--0-3-4--5-|
B|1----------|
G|-----------|
D|-----------|
A|-----------|
E|-----------| 

F                         Am          Dm
Everybody needs a hand to hold on
      Bbm          F
And a deal to get sold on -Riff 1
F                                          Dm
Theres a mad man loose without a doubt
        Bbm          F
And hes calling you out

Riff 2 x4
e|-------------|
B|-------------|
G|-------------|
D|-------3-----|
A|-----4-------|
E|---6---------|

Yes hes calling you
F              Am
Come on in its cold outside
    Dm                 Am
And we've got room for more
         G
Shut the door

Riff 3
e|-----------------------------------------------|
B|-----------------------------------------------|
G|-----------------------------------------------|
D|--3-5-5/7-5-7-7-5-7-5/3------------------------|
A|------------------------5--5-3--3-2--2-1--1-3--|
E|-----------------------------------------------|
Riff 2
e|----------------------------------------|
B|-10/6--6/1-------1---1------------------|
G|------------3--3---3---3-2-0------------|
D|----------------------------------------|
A|----------------------------------------|
E|----------------------------------------|

e|------------------------------0-3-4--5--|
B|----------------------------1-----------|
G|--0-2-3-4/6--/7-7-6--3-2----------------|
D|----------------------------------------|
A|----------------------------------------|
E|----------------------------------------|

Everybody wants to kill their brother
Put the blame on another -Riff 1
Wake up wake up this house in on fire
And we're down to the wire

Riff 2 x4

Yes we're down to it
Come on in its cold outside
And we've got room for more
Shut the door

Riff 1 "Going Home, Going Home, Going Home"
Добавлено: 12.04.2012
Другие материалы по этой песне:
  • Аккорды и текст

Страница создана 12.04.2012
http://primanota.ru/dr-dog/going-home-chords.htm
Привет, Гость.
Предлагаем пройти революционный курс по гитаре.
Подарок от PrimaNota.Ru, забирай!