PrimaNota.ru - самый крупный в мире бесплатный архив песенных текстов, аккордов, табулатур и нот


Dr Dog - Army Of Ancients - бас-таба, видео

Регистрация Запомнить меня
Войти через:  Facebook Google Twitter Vk Yandex Mail.ru

Dr Dog - Army Of Ancients - бас-таба, видео

Печатать
Просмотров: 113
ARMY OF ANCIENTS By DR. DOG
Bass Tab by Matthew of Seastroke

The song is in 3:3 and in standard tuning. Each x above the tab represents
a beat so you can keep track of how he plays it. 

  x  x  x   x  x  x  x  x  x   x  x  x
G|---------|--------|--------|---------|
D|------3--|3~~~~~~~|--------|-33------| repeat
A|-----3--3|--------|--------|3--------|   x3
E|---------|--------|--------|---------|

  x  x  x   x  x  x  x  x  x  x  x  x  x  x  x   x  x  x  x  x  x   x  x  x
G|---------|--------|-------|---------|---------|--------|--------|---------|
D|---------|--------|-------|---------|---------|--------|--------|---------|
A|------5--|5~~~~~~~|-------|-55------|------5-5|--------|--------|-3~~~~~~~|
E|-----5--5|--------|-------|5--------|-------5-|3~~~~~~~|--------|3--------|

  x  x  x   x  x  x  x  x  x  x  x  x  x  x  x   x  x  x  x  x  x   x  x  x
G|---------|33------|-------|-33------|-----34-|-55------|--------|-5-------|
D|---------|--------|-------|3--------|--------|---------|--------|5--------|
A|---------|--------|-------|---------|--------|---------|--------|---------|
E|---------|--------|-------|---------|--------|---------|--------|---------|

  x  x  x   x  x  x  x  x  x   x  x  x
G|---------|--------|--------|---------|
D|------3--|3~~~~~~~|--------|-33------| repeat
A|-----3--3|--------|--------|3--------|   x2
E|---------|--------|--------|---------|

  x  x  x   x  x  x  x  x  x  x  x  x  x  x  x   x  x  x  x  x  x   x  x  x
G|---------|--------|-------|---------|---------|--------|--------|---------|
D|---------|--------|-------|---------|---------|--------|--------|---------|
A|------5--|5~~~~~~~|-------|-55------|------5-5|--------|--------|-3~~~~~~~|
E|-----5--5|--------|-------|5--------|-------5-|3~~~~~~~|--------|---------|

  x  x  x   x  x  x  x  x  x  x  x  x  x  x  x   x  x  x  x  x  x   x  x  x
G|---------|33------|-------|-33------|-----34-|-55------|--------|-5-------|
D|---------|--------|-------|3--------|--------|---------|--------|5--------|
A|---------|--------|-------|---------|--------|---------|--------|---------|
E|---------|--------|-------|---------|--------|---------|--------|---------|

  x  x  x   x  x  x   x  x  x   x     x     x       x  x  x  x  x  x
G|--------|---------|---------|-------------------|---------|--------|
D|3--3--3-|-3--3--3-|-3--3--3/|/15-15-15-15-15-15-|-5~~~~~--|--------|
A|--------|3--------|3--------|-------------------|-------3-|--------|
E|--------|---------|---------|-------------------|---------|3-------|

  x  x  x  x  x  x  x  x  x  x  x  x  x  x  x  x  x  x
G|--------|--------|--------|--------|--------|--------|
D|--------|--------|--------|--------|--------|------2-|
A|--------|--------|3-------|3-----3-|3-------|3-------|
E|3~~~~~~~|------3-|------3-|--------|------3-|--------|

  x  x  x  x  x  x  x  x  x  x  x  x
G|--------|--------|--------|--------|
D|3-------|3-----3-|3-------|3-------|
A|------3-|--------|------3-|--x3--5-|
E|--------|--------|--------|--------|

  x  x  x   x  x  x   x  x  x   x     x     x       x  x  x  x  x  x
G|--------|---------|---------|-------------------|---------|--------|
D|3--3--3-|-3--3--3-|-3--3--3/|/15-15-15-15-15-15-|-5~~~~~--|--------|
A|--------|3--------|3--------|-------------------|-------3-|--------|
E|--------|---------|---------|-------------------|---------|3-------|

  x  x  x x  x  x  x  x  x  x  x  x  x  x  x  x  x  x  x  x  x  x x x  x x x
G|-------|--------|--------|--------|--------|--------|--------|------|-----|
D|-------|--------|--------|--------|--------|------2-|3~~~~~~~|------|-----|
A|-------|--------|3-------|3-----3-|3-------|3-------|--------|------|-----|
E|3~~~~~~|------3-|------3-|--------|------3-|--------|--------|------|-----|

  x  x  x   x  x  x  x  x  x   x  x  x
G|---------|--------|--------|---------|
D|------3--|3~~~~~~~|--------|-33------|
A|-----3--3|--------|--------|3--------|
E|---------|--------|--------|---------|

  x  x  x   x  x  x  x  x  x  x  x  x  x  x  x   x  x  x  x  x  x   x  x  x
G|---------|--------|-------|---------|---------|--------|--------|---------|
D|---------|--------|-------|---------|---------|--------|--------|---------|
A|------5--|5~~~~~~~|-------|-55------|------5-5|--------|--------|-3~~~~~~~|
E|-----5--5|--------|-------|5--------|-------5-|3~~~~~~~|--------|3--------|

  x  x  x   x  x  x  x  x  x  x  x  x  x  x  x   x  x  x  x  x  x   x  x  x
G|---------|33------|-------|-33------|-----34-|-55------|------5-|-5-------|
D|---------|--------|-------|3--------|--------|---------|-----5--|5--------|
A|---------|--------|-------|---------|--------|---------|--------|---------|
E|---------|--------|-------|---------|--------|---------|--------|---------|

  x  x  x  x  x  x  x  x  x  x  x  x
G|--------|--------|--------|--------|
D|--------|--------|--------|--------|
A|--------|--------|3~~~~~~~|--------|
E|5~~~~~~~|1~~~~~~~|--------|5~~~~~~~|

  x  x  x   x  x  x   x  x  x   x  x  x   x  x  x  x  x  x  x x x x x x
G|--------|---------|---------|---------|---------|--------|-----------|
D|8--8--8-|-8--8--8\|---------|---------|-5~~~~~--|--------|-----------|
A|--------|8--------|-5--5--5-|-5--5--5-|-------3-|--------|-----------|
E|--------|---------|---------|5--------|---------|3~~~~~~~|~-~-~------|

  x  x  x  x  x  x  x  x  x  x  x  x  x x x x x x
G|--------|--------|--------|--------|-----------|
D|--------|--------|--------|--------|-----------|
A|1~~~~~2~|3~~~~~~~|5~~~~~--|--------|-----------|
E|--------|--------|------1~|3~~~~~~~|~-~-~------|

  x  x  x   x  x  x   x  x  x   x     x     x       x  x  x  x  x  x
G|--------|---------|---------|-------------------|---------|--------|
D|3--3--3-|-3--3--3-|-3--3--3/|/15-15-15-15-15-15-|-5~~~~~--|--------|
A|--------|3--------|3--------|-------------------|-------3-|--------|
E|--------|---------|---------|-------------------|---------|3-------|

  x  x  x x  x  x  x  x  x  x  x  x  x  x  x  x  x  x
G|-------|--------|--------|--------|--------|--------|
D|-------|--------|--------|--------|--------|------2-|
A|-------|--------|3-------|3-----3-|3-------|3-------|
E|3~~~~~~|------3-|------3-|--------|------3-|--------|

  x  x  x   x  x  x   x  x  x   x     x     x       x  x  x  x  x  x
G|--------|---------|---------|-------------------|---------|--------|
D|3--3--3-|-3--3--3-|-3--3--3/|/15-15-15-15-15-15-|-5~~~~~--|--------|
A|--------|3--------|3--------|-------------------|-------3-|--------|
E|--------|---------|---------|-------------------|---------|3-------|

  x  x  x x  x  x  x  x  x  x  x  x  x  x  x  x  x  x
G|-------|--------|--------|--------|--------|--------|
D|-------|--------|--------|--------|--------|------2-|
A|-------|--------|3-------|3-----3-|3-------|3-------|
E|3~~~~~~|------3-|------3-|--------|------3-|--------|

  x  x  x   x  x  x   x  x  x   x     x     x       x  x  x  x  x  x
G|--------|---------|---------|-------------------|---------|--------|
D|3--3--3-|-3--3--3-|-3--3--3/|/15-15-15-15-15-15-|-5~~~~~--|--------|
A|--------|3--------|3--------|-------------------|-------3-|--------|
E|--------|---------|---------|-------------------|---------|3-------|

  x  x  x x  x  x  x  x  x  x  x  x  x  x  x  x  x  x
G|-------|--------|--------|--------|--------|--------|
D|-------|--------|--------|--------|--------|------2-|
A|-------|--------|3-------|3-----3-|3-------|3-------|
E|3~~~~~~|------3-|------3-|--------|------3-|--------|	
Добавлено: 15.06.2012
Другие материалы по этой песне:
  • Аккорды и текст

Страница создана 15.06.2012
http://primanota.ru/dr-dog/army-of-ancients-chords.htm
Привет, Гость.
Предлагаем пройти революционный курс по гитаре.
Подарок от PrimaNota.Ru, забирай!