PrimaNota.ru - самый крупный в мире бесплатный архив песенных текстов, аккордов, табулатур и нот


Dr Dog - Aint It Strange - аккорды и текст, таба, видео

Регистрация Запомнить меня
Войти через:  Facebook Google Twitter Vk Yandex Mail.ru

Dr Dog - Aint It Strange - аккорды и текст, таба, видео

Печатать
Просмотров: 151
Aint It Strange
Dr Dog
Artist: Dr. Dog
Song: Ain't It Strange
Album: Takers and Leavers EP
Tabed by Howard: witmachine@yahoo.com

The bass and piano lines outline the chords, so it's pretty easy to follow.

E
Ain't it strange

How everybody says 'I Love You'
          F#m
Aint it a shame

How a word can tell you
                    E
More than words can say
	   B
I need you here

E
Ain't it strange

Cuz Im always thinking of ya
	   F#m
Ain't it a shame

How a thought can catch 
		    E
The breeze and blow away
		B
And leave you here

E	C#m
Oh but I know
    F#m		B
How bad it can get (bad it can get)
E	   C#m
But I dont mind baby
F#m     B
I don't mind
E	C#m
What I know
F#m		B
How soon we'll forget but
E	    C#m
Time keeps wearin baby
F#m	    B	    E
Time takes care of me

E
Aint it strange

How a man who lives for nothing
	F#m
Can change

Cuz if he stays the same
		    E
He'll die a million days
	B
Year by year
E
Theres a train (drum drum drum)

E
At the bottom of the ocean
	    F#m
And when it rains
					     E
We'll get close to where the water meets the sky
	    B
For you and i

E	       C#m
Oh but I don't know
    F#m		 B
How far this can go (bad it can get)
    E	   C#m
But i dont mind baby
F#m     B
I don't mind
E		 C#m
Theres no use in saying
F#m		B
What you've been spraying
E	C#m
Even strangers know how
F#m		B
Strange it can be

A		      A/Ab
We're only getting old
    F#m			 (Abm)	E
Cuz that's what we were told to do
	 A			A/Ab
But they say we're getting through
     F#m		(Abm)
But what's that got to do
     E
With us?
	E		   C#m
So come on and work it out ...


E--------------------------------------------------------------------------|
B-----------8-9-9----------------------------------------------------------|
G-----9-8-9-8-9-9----vocal break-in E--------------------------------------|
D-----8-7-8----------------------------------------------------------------|
A--------------------------------------------------------------------------|
E--------------------------------------------------------------------------|

E--------4h5--5/7---9\------9--9-9-7--|-10--10-10-9-7-----8-8-8-8-7-7-7-7--|
B--5---5----------------4-------------|---------------10-------------------|
G-------------------------------------|------------------------------------|
D-------------------------------------|------------------------------------|
A-------------------------------------|------------------------------------|
E-------------------------------------|------------------------------------|


E-------------------------------------|------------------------------------|
B-------------------------------------|------------------------------------|
G--------1h2--2/4---6\------6--6-6-4--|-7--7-7--6-4-2----5-5-5-5--4-4-4-4--|
D--2---2----------------1-------------|------------------------------------|
A-------------------------------------|------------------------------------|
E-------------------------------------|------------------------------------|
Добавлено: 13.05.2012
Другие материалы по этой песне:
  • Аккорды и текст

Страница создана 13.05.2012
http://primanota.ru/dr-dog/aint-it-strange-chords.htm
Привет, Гость.
Предлагаем пройти революционный курс по гитаре.
Подарок от PrimaNota.Ru, забирай!