PrimaNota.ru - самый крупный в мире бесплатный архив песенных текстов, аккордов, табулатур и нот


Dr Chuds X-ward - Goodbye - таба, видео

Регистрация Запомнить меня
Войти через:  Facebook Google Twitter Vk Yandex Mail.ru

Dr Chuds X-ward - Goodbye - таба, видео

Печатать
Просмотров: 135
Tabbed by:Davey13
Email:bill_clinton_the_man@hotmail.co.uk

Tuning:standard

righti duno the beginning, cos i only figured it out 2day. no solo either, so improvise! :D

intro, chorus

e|----------------------------------------------------------------------------|
B|----------------------------------------------------------------------------|
G|---------------------------5-5-5555555--------------------------------------|
D|-2-2-2222222--5-5-5555555--5-5-5555555--------------------------------------|
A|-2-2-2222222--5-5-5555555--3-3-3333333--------------------------------------|
E|-0-0-0000000--3-3-3333333---------------0-0-0-0-3br-0-0-0-0-0-0-3br-0-3br-0-|
                                                  
Verse

e|------------------------------------------------------------------------|
B|------------------------------------------------------------------------|
G|---99-999999--------------------------------77-555555-------------------|
D|---99-999999--1010-101010101010--55-555555--77-555555-------------------|
A|---77-777777--1010-101010101010--55-555555--55-555555-------------------|
E|--------------8-8--8-8-8-8-8-8---33-333333------------------------------|
        pppppp       p p p p p p      pppppp     pppppp

chord b4 chorus.
e|-------|
B|-------|
G|-------|
D|-9-----|
A|-9-----|
E|-7-----|
(let ring)

bit b4 solo.

e|---------------------|
B|---------------------|
G|---------------------|
D|----------------55---|
A|----------------55---|
E|----00-30-00000 33---|
         bend release 3

hope it helps ill update and put in key when i can, gotta shoot out!! :D
Добавлено: 11.06.2012
Другие материалы по этой песне:
  • Аккорды и текст

Страница создана 11.06.2012
http://primanota.ru/dr-chuds-x-ward/goodbye-chords.htm
Привет, Гость.
Предлагаем пройти революционный курс по гитаре.
Подарок от PrimaNota.Ru, забирай!