PrimaNota.ru - самый крупный в мире бесплатный архив песенных текстов, аккордов, табулатур и нот


Dr Acula - Who You Gonna Call - текст песни, таба, видео

Регистрация Запомнить меня
Войти через:  Facebook Google Twitter Vk Yandex Mail.ru

Dr Acula - Who You Gonna Call - текст песни, таба, видео

Печатать
Просмотров: 221
Artist..........Dr. Acula
Song............Who You Gonna Call!?
Album...........Slander
Tuning..........Drop B

So surprised nobody has tabbed this song yet.. with all the demand I see 
everywhere and all the demand I had I thought it had to have been done by 
now. But whatever, I did it, it's perfect, Dr. Acula fans, enjoy ;)
Cheers.

Note: The . below the tab indicates a palm mute.
      The \ after a note means slide out.
      The / before a note means slide in.
      The little ~ means ring out.

Tabbed for 1 guitar, 2 is optional, mainly only the little fills.
Guitar 1&2 --> Drop B


0:03
Intro/Hook:
\--------------------------------------------------/
\--------------------------------------------------/
\--------------------------------------------------/
\--------------------------------------------------/
\--------------------------------------------------/
\--12~--0--0--0---11-8-11-12~--0--0--0--11-12-11~--/
         .  .  .                .  .  .

\-------------------------------------------------/
\-------------------------------------------------/
\-------------------------------------------------/
\-------------------------------------------------/
\-------------------------------------------------/
\--12~--0--0--0---11-8-11-12~--0--0--0--11-8-11~--/
         .  .  .                .  .  .
0:11 - Drums come in.
This 3 times:
\-----------------------/
\-----------------------/
\-----------------------/
\-----------------------/ <-- x3
\-----------------------/
\--7---7---7----7-7-11--/


0:16
Then it changes to this once:
\-------------------------------/
\-------------------------------/
\-------------------------------/
\-------------------------------/
\-------------------------------/
\--7---7---7---7-7-11--12--11~--/


0:18
\--------------------------------------------------/
\--------------------------------------------------/
\--------------------------------------------------/
\--------------------------------------------------/
\--------------------------------------------------/
\--12~--0--0--0---11-8-11-12~--0--0--0--11-12-11~--/
         .  .  .                .  .  .

\-------------------------------------------------/
\-------------------------------------------------/
\-------------------------------------------------/
\-------------------------------------------------/
\-------------------------------------------------/
\--12~--0--0--0---11-8-11-12~--0--0--0--11-8-11~--/
         .  .  .                .  .  .
0:25
\-----------------------/
\-----------------------/
\-----------------------/
\-----------------------/ <-- x3
\-----------------------/
\--7---7---7----7-7-11--/


0:30
\-------------------------------/
\-------------------------------/
\-------------------------------/
\-------------------------------/
\-------------------------------/
\--7---7---7---7-7-11--12--11~--/


Verse 1:

0:32
\--------------------------------------------------/
\--------------------------------------------------/
\--------------------------------------------------/
\--------------------------------------------------/
\--------------------------------------------------/
\--12~--0--0--0---11-8-11-12~--0--0--0--11-12-11~--/
         .  .  .                .  .  .

\-------------------------------------------------/
\-------------------------------------------------/
\-------------------------------------------------/
\-------------------------------------------------/
\-------------------------------------------------/
\--12~--0--0--0---11-8-11-12~--0--0--0--11-8-11~--/
         .  .  .                .  .  .
0:40
\-----------------------/
\-----------------------/
\-----------------------/
\-----------------------/ <-- x3
\-----------------------/
\--7---7---7----7-7-11--/

0:45
\-------------------------------/
\-------------------------------/
\-------------------------------/
\-------------------------------/
\-------------------------------/
\--7---7---7---7-7-11--12--11~--/

Repeat the above twice then play (temolo):

1:01
\---------------------------------------------------/
\---------------------------------------------------/
\---------------------------------------------------/
\-----------------12-(x3)-15-(x3)--12-(x2)----------/  <-- x3
\--5-(x3)-11-(x3)--------------------------11-(x2)--/
\---------------------------------------------------/

1:07
\----------------------------------------------------/
\----------------------------------------------------/
\----------------------------------------------------/
\--17-(x3)--12-(x3)-15-(x3)-11-(x3)-12-(x2)-11-(x2)--/
\----------------------------------------------------/
\----------------------------------------------------/

Repeat the above twice.

Break:
1:15-1:17

1:17
\-----------------------------------------------/
\-----------------------------------------------/
\-----------------------------------------------/
\--5-/-7----------5-/-7--------9---9---9-10-9---/ (x2)
\--3-/-5--0-------3-/-5--0-----7---7---7-8--7---/
\---------0-(x12)--------0-(x7)-----------------/
           .              .
1:30:

Guitar 1:
1:17
\----------------------------------------------/
\----------------------------------------------/
\----------------------------------------------/
\--5-/-7----------5-/-7--------9---9---9-10-9--/ (x2)
\--3-/-5--0-------3-/-5--0-----7---7---7-8--7--/
\---------0-(x12)--------0-(x7)----------------/
           .              .
Guitar 2:
Take a one note pause after the first of every set. Like: -.------
It's eight beats, just with one rest.
\--------------------------------/
\--------------------------------/
\--7-------9------10-----12------/
\--x-(x7)--x-(x7)-x-(x7)-x-(x7)--/  <-- x2
\--5-------7------8------10------/
\--------------------------------/

Pre-Breakdown:
1:43
\-----------------------------------------------------------/
\-----------------------------------------------------------/
\-----------------------------------------------------------/
\--5-/-7~~~~-------5-/-7~~~~-9---9---9-10-9--5-/-5~\-slide--/ 
\--3-/-5~~~~-------3-/-5~~~~-7---7---7-8--7--3-/-3~\--out---/
\-----------------------------------------------------------/

1:50-"Goddamit, Bill f**ckin' Murr---"1:54

1:54
\-----------------------------------------------------------/
\-----------------------------------------------------------/
\-----------------------------------------------------------/
\-----------------------------------------------------------/  <-- x2
\-----------------------------------------------------------/
\-12~-0-0-0-0--11~-0-0-0-0--8~-0-0-0-0--7~--0-0--3p0-3p0----/

Post-Breakdown:
2:12
Tremolo these notes
\-------------------------------------------/
\-------------------------------------------/
\-\7-------\10------\12-------\9------------/
\--x--------x--------x---------x------------/  <-- x3
\-\5-(x16)-\8-(x16)-\10-(x16)-\7-(x16)------/
\-------------------------------------------/

2:35
Mute every other note, like: -x-x-x-x
\-------------------------------------------/
\-------------------------------------------/
\-\7-------\10------\12-------\9------------/
\--x--------x--------x---------x------------/
\-\5--(x8)-\8--(x8)-\10--(x8)-\7--(x8)------/
\-------------------------------------------/

Finish this section with:
2:42
\-----------/
\-----------/
\-7~~~~~----/
\-x~~~~~----/  <-- x2
\-5~~~~~----/
\-----------/

2:47-"We came, we saw, we kicked it's ass!"2:50

Breakdown #2:
2:50
\-------------------------/
\-------------------------/
\-------------------------/
\-------------------------/  <-- x3
\--0~--0--0---0--0-0-0-0--/
\--1~--0--0---0--0-0-0-0--/

2:56
\---------------------------/
\---------------------------/
\--------------\7--x--\7----/
\---------------x--x---x----/
\--0~--0--0-0--\5--x--\5----/
\--1~--0--0-0---------------/

2:59
\-------------------------/
\-------------------------/
\-------------------------/
\-------------------------/  <-- x3
\--0~--0--0---0--0-0-0-0--/
\--1~--0--0---0--0-0-0-0--/

3:06
\---------------------------/
\---------------------------/
\--------------\7--x--\7----/
\---------------x--x---x----/
\--0~--0--0-0--\5--x--\5----/
\--1~--0--0-0---------------/

Verse 2:
3:08
\--------------------------------------------------/
\--------------------------------------------------/
\--------------------------------------------------/
\--------------------------------------------------/
\--------------------------------------------------/
\--12~--0--0--0---11-8-11-12~--0--0--0--11-12-11~--/
         .  .  .                .  .  .

\-------------------------------------------------/
\-------------------------------------------------/
\-------------------------------------------------/
\-------------------------------------------------/
\-------------------------------------------------/
\--12~--0--0--0---11-8-11-12~--0--0--0--11-8-11~--/
         .  .  .                .  .  .
3:15
\-----------------------/
\-----------------------/
\-----------------------/
\-----------------------/ <-- x3
\-----------------------/
\--7---7---7----7-7-11--/

3:20
\-------------------------------/
\-------------------------------/
\-------------------------------/
\-------------------------------/
\-------------------------------/
\--7---7---7---7-7-11--12--11~--/

Outro:
3:22
Guitar 1:
\--------------------------------------------------/
\--------------------------------------------------/
\--------------------------------------------------/
\--------------------------------------------------/
\--------------------------------------------------/
\--12~--0--0--0---11-8-11-12~--0--0--0--11-12-11~--/
         .  .  .                .  .  .

\-------------------------------------------------/
\-------------------------------------------------/
\-------------------------------------------------/
\-------------------------------------------------/
\-------------------------------------------------/
\--12~--0--0--0---11-8-11-12~--0--0--0--11-8-11~--/
         .  .  .                .  .  .

Guitar 2:
This gets played twice for every time the main riff is played.
\---------------------------------------------------/
\---------------------------------------------------/
\---------------------------------------------------/
\-----------------12-(x3)-15-(x3)--12-(x2)----------/  <-- x4
\--5-(x3)-11-(x3)--------------------------11-(x2)--/
\---------------------------------------------------/

3:30
Guitar 1:
\-----------------------/
\-----------------------/
\-----------------------/
\-----------------------/ <-- x3
\-----------------------/
\--7---7---7----7-7-11--/

Guitar 2:
\-----------------------------------/
\-----------------------------------/
\-----------------------------------/
\--12~~~-14-15~~~-20-19~~~--19--20--/
\-----------------------------------/
\-----------------------------------/

3:35
Guitar 1:
\-------------------------------/
\-------------------------------/
\-------------------------------/
\-------------------------------/
\-------------------------------/
\--7---7---7---7-7-11--12--11~--/

Guitar 2:
\-----------/
\-----------/
\-----------/
\-22~~~~----/ 
\-----------/
\-----------/

Guitar 1&2:
\-----------/
\-----------/
\-----------/
\-12\\\\----/  
\-12\\\\----/
\-12\\\\----/
Добавлено: 29.09.2013
Другие материалы по этой песне:
  • Аккорды и текст

Страница создана 29.09.2013
http://primanota.ru/dr-acula/who-you-gonna-call-chords.htm
Привет, Гость.
Предлагаем пройти революционный курс по гитаре.
Подарок от PrimaNota.Ru, забирай!