PrimaNota.ru - самый крупный в мире бесплатный архив песенных текстов, аккордов, табулатур и нот


Dr Acula - Night Of The Living Dummy - текст песни, таба, видео

Регистрация Запомнить меня
Войти через:  Facebook Google Twitter Vk Yandex Mail.ru

Dr Acula - Night Of The Living Dummy - текст песни, таба, видео

Печатать
Просмотров: 278
Уроки эстрадного вокала в Санкт-Петербурге
Drop C:

This is the original version with the high screaming to avoid confusion!

Synth Intro...

|-------------------------------------------- -----]
|--------------------------------------------      ]
|----11---11---11-11-11----------------------      ]
|----x----x----x--x--x--------------9-11-----      ]X8
|----9----9----9--9--9---9-11-10-12------9-11      ]
|-------------------------------------------- -----]

Synth Break...

|------------------ -----]
|--7-6-5-4-3-4-5-6-      ]
|--7-6-5-4-3-4-5-6-      ]
|------------------      ]X2
|------------------      ]
|------------------ -----]

|--7-6-5-4-3-4-5-6- -----]
|--7-6-5-4-3-4-5-6-      ]
|------------------      ]
|------------------      ]X2
|------------------      ]
|------------------ -----]

|------------------------------------------------- -----]
|-------------------------------------------------      ]
|-------------------------------------------------      ]
|--00000000223388888877777770000000022331111111111      ]X2  Note: Probably 
|-------------------------------------------------      ]          not the
|------------------------------------------------- -----]          right 
                                                                   amount of
                                                                   notes

|---------------------------------- -----]
|----------------------------------      ]
|----------------------------------      ]
|-0--2-3-8--7----0--2-3-1-1-1-1-1-1      ]X3  Note: On the 3rd time release 
|-0--2-3-8--7----0--2-3-1-1-1-1-1-1      ]          and hold the 1
|-0--2-3-8--7----0--2-3-1-1-1-1-1-1 -----]
                        . . . . . . 

Ron i know it sounds harsh... but god does not want her to live...

|------------------------------------------------ -----]
|------------------------------------------------      ]
|------------------------------------------------      ]
|--0---0--0-0-0-0---0--0--0-0-0-0--7--4----4-6--3      ]X7
|--0---0--0-0-0-0---0--0--0-0-0-0--7--4----4-6--3      ]
|--0---0--0-0-0-0---0--0--0-0-0-0--7--4----4-6--3 -----]
   .   .  . . . .   .  .  . . . .

.= Palm Mute
Добавлено: 27.06.2012
Другие материалы по этой песне:
  • Аккорды и текст

Страница создана 06.04.2012
http://primanota.ru/dr-acula/night-of-the-living-dummy-chords.htm
Привет, Гость.
Предлагаем пройти революционный курс по гитаре.
Подарок от PrimaNota.Ru, забирай!