PrimaNota.ru - самый крупный в мире бесплатный архив песенных текстов, аккордов, табулатур и нот


Dr Acula - Hands Of Your God - таба, видео

Регистрация Запомнить меня
Войти через:  Facebook Google Twitter Vk Yandex Mail.ru

Dr Acula - Hands Of Your God - таба, видео

Печатать
Просмотров: 182
-------------------------------------------------------------------------------
                        HANDS OF YOUR GOD - Dracula
-------------------------------------------------------------------------------

Tuning: standard

[INTRO]

e|-----0-------0---1---0---3-----------0----------------------------------------|
B|---1---1---1---1-------3-----3-----1---1-----1-------3-------0----------------|
G|-------------------3-------0---0-----------2---2---2---2---1---1--------------|
D|-----------------0-------------------------------0----------------------------|
A|-0-------3-----------------------0--------------------------------------------|
E|-------------------------3---------------1---------------0--------------------|

e|-----0-------0---1---0---3-----------0-------0-------------|
B|---1---1---1---1-------3-----3-----1---1---0---0-----------|
G|-------------------3-------0---0---------------------------|
D|-----------------0-----------------------------------------|
A|-0-------3-----------------------0-------------------------|
E|-------------------------3---------------0-----------------|

e|---------------------------------------------------------------------------|
B|---------------------------------------------------------------------------|
G|-2---9-9--5--7-5-4--2---9-9--5--10--9-7--2---9-9--5--7-5-4-----------------|
D|---------------------------------------------------------------------------|
A|-0---7-7--3--5-3-2--0---7-7--3--8---7-5--0---7-7--3--5-3-2-----------------|
E|---------------------------------------------------------------------------|

e|-1---0-----------0--------------------------|
B|---------3---1--------3---1---0-------------|
G|---2---2---2---2----1---1---1---1-----------|
D|-0------------------------------------------|
A|--------------------------------------------|
E|-----------------0--------------------------|

e|--5----------------------------------5----------------------------------------|
B|--5----------------------------------5----------------------------------------|
G|--5--------5----------------5--------5--------5---------------5---------------|
D|--7----7-------7-------7--------7----7----7-------7-------7-------7-----------|
A|--7------7---7---7---7---7----7---7--7------7---7---7---7---7---7---7---------|
E|--5----------------5-----------------5----------------7-----------------------|

[VERSE]

Embraced your God...
e|-----0-------0---1---0---3-----------0----------------------------------------|
B|---1---1---1---1-------3-----3-----1---1-----1-------3-------0----------------|
G|-------------------3-------0---0-----------2---2---2---2---1---1--------------|
D|-----------------0-------------------------------0----------------------------|
A|-0-------3-----------------------0--------------------------------------------|
E|-------------------------3---------------1---------------0--------------------|

I cursed my faith...
e|-----0-------0---1---0---3-----------0-------0--------0------------|
B|---1---1---1---1-------3-----3-----1---1---0---0----1---1-3-1-0-1--|
G|-------------------3-------0---0-----------------------------------|
D|-----------------0-------------------------------------------------|
A|-0-------3-----------------------0----------------0----------------|
E|-------------------------3---------------0-------------------------|

I promise you...
e|-1---0-------0---0-----------0----------------------------------------------|
B|---------3-----------3---1-------3---1---0---1-------0---1---3--------------|
G|---2---2---2---2---2---2---2---2---1---1---1---1-2--------------------------|
D|-0-------------------------------------------------2---2---2---2------------|
A|-----------------0-------------------------------0--------------------------|
E|---------------------------------0------------------------------------------|

I paint...                                 From the  hands of your God
e|-1---0-------0---0-----------0---------------------0------------|
B|---------3-----------3---1-------3---1---0---1-----0------------|
G|---2---2---2---2---2---2---2---2-------------------1------------|
D|-0---------------------------------2---2---2---2---2------------|
A|-----------------0---------------------------------2------------|
E|---------------------------------0-----------------0------------|

Embraced your God with heart and soul
You blessed me, then you killed my love
I cursed my faith in the Lord
From the Devil's shore

I promise you a genocide
A dawn of death and fraud 
I paint the world with the blood
From the hands of your God

[BRIDGE] Am-C-Dm-G-Am-F-Dm-E--Am-C-Dm-G-Am-Em-Am-Am

Am          C           Dm    G
Confession, grace, your all denial
Am F          Dm    E
Anything just to survive
Am        C        Dm       G
Existence with the trail of lies
Am        E      Am
Redeem no compromise

Dm              Am
I promise you a trip to hell,
E                 Am
Get ready for the road
Dm             Am
The Antichrist is out tonight
E7                    E
And it's all from the hands of your God

[SOLO HERE] (you can play the bridge chords here)

Dm                Am
Ring the bell for judgement day
E              
Now the rage is on
Dm               Am
The Devil's on a quest tonight
E7           E
To take you home

Dm              Am
I promise you a genocide
E7                  E
A dawn of death and fraud 
Dm                Am
I paint the world with the blood
E7       E
From the hands of your God


Еnjoy)
Добавлено: 08.08.2015
Другие материалы по этой песне:
  • Аккорды и текст

Страница создана 08.08.2015
http://primanota.ru/dr-acula/hands-of-your-god-chords.htm
Привет, Гость.
Предлагаем пройти революционный курс по гитаре.
Подарок от PrimaNota.Ru, забирай!