PrimaNota.ru - самый крупный в мире бесплатный архив песенных текстов, аккордов, табулатур и нот


Dr Acula - Go Eat Worms - таба, видео

Регистрация Запомнить меня
Войти через:  Facebook Google Twitter Vk Yandex Mail.ru

Dr Acula - Go Eat Worms - таба, видео

Печатать
Просмотров: 149
Yo no queria subirla pero un amigo me dijo ke la suba asi ke aki esta. Viva MExico!!!!!!

I Don't want to upload this tab but my frined told me to that i have to, so here you go 
so you must rate this 5 stars or i will erase this shit please don't copy this and say 
you made this cuz is no true i made this thing and it was very dificult

The Tunning Its  Dropped C

Solo
[-12-0-0-10-0-0-9-0-0-10-0-0-9-0-7-0-9-0-0-7-0-0-5-0-0-7-0-0-5-0-3-0-]
[--------------------------------------------------------------------]
[--------------------------------------------------------------------]
[--------------------------------------------------------------------](x4)
[--------------------------------------------------------------------]
[--------------------------------------------------------------------]

Rythm    Let Ring
[-----------------------------]
[-----------------------------]
[-9------9=--------9----------]
[-9-(x2--9=--------9----------]
[-7------7=------- 7----------]
[-----------------------------]

Lead
[-12-0-0-10-0-0-9-0-0-10-0-0-9-0-7-0-9-0-0-7-0-0-5-0-0-7-0-0-5-0-3-0-]
[--------------------------------------------------------------------]
[--------------------------------------------------------------------]
[--------------------------------------------------------------------](x6)
[--------------------------------------------------------------------]
[--------------------------------------------------------------------]

 Rythm                             Let Ring
[-------------------------]     [---------------]
[ ------------------------]     [---------------]
[-9-----7-----5-----3-----]     [-9=--7=--5=--3=]
[-9(x16)7(x16)5(x16)3(x16)](x2) [-9=--7=--5=--3=](x1)
[-7-----5-----3-----1-----]     [-7=--5=--3=--1=]
[-------------------------]     [---------------]

Lead
[-0h15h17-0h15h17-0h15h17-0h15h17-0h15h17-0h15h17-0h15h17-0h15h17]
[----------------------------------------------------------------]
[----------------------------------------------------------------]
[----------------------------------------------------------------]
[----------------------------------------------------------------]
[----------------------------------------------------------------]


   T        T        T        T        T        T        T       T
[-17p15p10-17p15p10-17p15p10-17p15p10-17p15p10-17p15p10-17p15p0-17p15p10]
[-----------------------------------------------------------------------]
[-----------------------------------------------------------------------]
[-----------------------------------------------------------------------]
[-----------------------------------------------------------------------]
[-----------------------------------------------------------------------]


   T       T       T       T       T       T       T       T
[-15p12p7-15p12p7-15p12p7-15p12p7-15p12p7-15p12p7-15p12p7-15p12p7]
[----------------------------------------------------------------]
[----------------------------------------------------------------]
[----------------------------------------------------------------]
[----------------------------------------------------------------]
[----------------------------------------------------------------]


  T      T      T      T      T      T      T      T      T
[-10p7p3-10p7p3-10p7p3-10p7p3-10p7p3-10p7p3-10p7p3-10p7p3-12]
[-----------------------------------------------------------]
[-----------------------------------------------------------]
[-----------------------------------------------------------]
[-----------------------------------------------------------]
[-----------------------------------------------------------]

End Of The SOlo
[-----10-10-----8-8---10-10-----/8*/]
[--8-8-----10-10---8-8-----10-10----]
[-----------------------------------]
[-----------------------------------]
[-----------------------------------]
[-----------------------------------]

Final BreakDown
[----------------------]
[----------------------]
[----------------------]
[----------------------](x4)
[3-2-3-2-3-2-00-000-000]
[3-2-3-2-3-2-00-000-000]
 . . . . . . .. ... ...

Crazy End
[-------------]
[5/13---------]
[4/12-(x2)----]
[3/11---------]
[-----------0-]
[-----------0-]

The Hnad
Добавлено: 21.03.2012
Другие материалы по этой песне:

Страница создана 08.03.2012
http://primanota.ru/dr-acula/go-eat-worms-chords.htm
Привет, Гость.
Предлагаем пройти революционный курс по гитаре.
Подарок от PrimaNota.Ru, забирай!