PrimaNota.ru - самый крупный в мире бесплатный архив песенных текстов, аккордов, табулатур и нот


Dowsing - Wherere Here To Basketball - таба, видео

Регистрация Запомнить меня
Войти через:  Facebook Google Twitter Vk Yandex Mail.ru

Dowsing - Wherere Here To Basketball - таба, видео

Печатать
Просмотров: 93
Where're Here To Basketball - Dowsing


Tuning: Standard

Its really tough to tab out the rhythm for this song accurately but you'll probably get it if you
watch the acoustic video on youtube.

INTRO/VERSE:
e|--------------------------|
B|--------------------------|
G|-2-2-2-2---2-2---2-2---2--|
D|-0-0-0-0---0-0---0-0---0--|
A|-x-x-x-x---x-x---x-x---x--|
E|-2-2-2-3---3-3---3-3---3--|

CHORUS:
e|---------------------------------------------------------------------------|
B|---------------------------------------------------------------------------|
G|-6----6--6--6--6--7--7--7--7--7--11--11-11--11-11-9---9--9---9--9----------|
D|-0----0--0--0--0--0--0--0--0--0--0---0--0---0--0--0---0--0---0--0----------|
A|-x----x--x--x--x--x--x--x--x--x--x---x--x---x--x--x---x--x---x--x----------|
E|-5----5--5--5--5--7--7--7--7--7--12--12-12--12-12-10--10-10--10-10---------|
I never make myself clear

e|---------------------------------------------------------------------------|
B|---------------------------------------------------------------------------|
G|-6----6--6--6--6--7--7--7--7--7--4---4--4---4--4--4---4--4---4--4----------|
D|-0----0--0--0--0--0--0--0--0--0--0---0--0---0--0--0---0--0---0--0----------|
A|-x----x--x--x--x--x--x--x--x--x--x---x--x---x--x--x---x--x---x--x----------|
E|-5----5--5--5--5--7--7--7--7--7--3---3--3---3--3--3---3--3---3--3----------|
yet my intentions keep you near

e|---------------------------------------------------------------------------|
B|---------------------------------------------------------------------------|
G|-6----6--6--6--6--7--7--7--7--7--11--11-11--11-11-9---9--9---9--9----------|
D|-0----0--0--0--0--0--0--0--0--0--0---0--0---0--0--0---0--0---0--0----------|
A|-x----x--x--x--x--x--x--x--x--x--x---x--x---x--x--x---x--x---x--x----------|
E|-5----5--5--5--5--7--7--7--7--7--12--12-12--12-12-10--10-10--10-10---------|
No wonder you're confused

e|---------------------------------------------------------------------------|
B|---------------------------------------------------------------------------|
G|-6----6--6--6--6--7--7--7--7--7--4--4--4--6----6--7----7--7----7--7--------|
D|-0----0--0--0--0--0--0--0--0--0--0--0--0--0----0--0----0--0----0--0--------|
A|-x----x--x--x--x--x--x--x--x--x--x--x--x--x----x--x----x--x----x--x--------|
E|-5----5--5--5--5--7--7--7--7--7--3--3--3--5----5--7----7--7----7--7--------|
By muffled descriptions and my drunken slurs

REPEAT VERSE & CHORUS

e|---------------------------------------------------------------------------|
B|---------------------------------------------------------------------------|
G|-4--4--4--6----6--7----7--7----7--7----------------------------------------|
D|-0--0--0--0----0--0----0--0----0--0----------------------------------------|
A|-x--x--x--x----x--x----x--x----x--x----------------------------------------|
E|-3--3--3--5----5--7----7--7----7--7----------------------------------------|
Because I need a coast to keep me in line!

Full lyrics:
Bruising's easy when you're clumsy, when you're drunk it's even worse
We could childproof the living room but I don't think that it would help
The carpet's stained from use, tipped over glasses and leftover food
And when the dishes pile up I'll do them in the morning.

I never make myself clear yet my intentions keep you near
No wonder you're confused
By muffled descriptions and my drunken slurs.

Let's not ruin a good thing, I need a friend not a relationship
Because I'm the worse kind of person always throwing good things away.
You won't see it but you will someday
When you're tired of getting old tired of all my friends
I won't get tired of you. I won't get tired of you.

Let's move to Seattle I won't break this promise to you
I hear it rains all year but that's alright with me.

Because I need a coast to keep me in line.
Добавлено: 14.11.2015
Вам также может быть интересно:
Другие материалы по этой песне:
  • Аккорды и текст

Страница создана 14.11.2015
http://primanota.ru/dowsing/wherere-here-to-basketball-chords.htm
Привет, Гость.
Предлагаем пройти революционный курс по гитаре.
Подарок от PrimaNota.Ru, забирай!