PrimaNota.ru - самый крупный в мире бесплатный архив песенных текстов, аккордов, табулатур и нот


Dowsing - Driving - таба, видео

Регистрация Запомнить меня
Войти через:  Facebook Google Twitter Vk Yandex Mail.ru

Dowsing - Driving - таба, видео

Печатать
Просмотров: 109
Tuning: Half-step down

INTRO:
eb|-----------------------|--|
Bb|-7---5---3---5---7--5--|--|
Gb|-7---7---7---7---7--7--|x2|
Db|-----------------------|--|
Ab|-----------------------|--|
Eb|-----------------------|--|

eb|---------------------------------|--|-------|
Bb|-7-7-7-7-7-7-7-7-5-5-5-3-3-3-5-5-|--|       |
Gb|-7-7-7-7-7-7-7-7-7-7-7-7-7-7-7-7-|x2|       |
Db|---------------------------------|--|       |
Ab|---------------------------------|--|       |
Eb|---------------------------------|--|       |
                                               x2
eb|---------------------------------|--|       |
Bb|-8-8-8-8-8-8-8-8-7-7-7-7-7-7-7-7-|--|       |
Gb|-7-7-7-7-7-7-7-7-7-7-7-7-7-7-7-7-|x2|       |
Db|---------------------------------|--|       |
Ab|---------------------------------|--|       |
Eb|---------------------------------|--|-------|

End Intro on:
eb|------------|
Bb|-10---------|
Gb|-7----------|
Db|------------|
Ab|------------|
Eb|------------|


VERSE:
eb|-2--2--------2--2---------|
Bb|-3--3--------3--3---------|
Gb|-2--2--2--2--2--2--2--2---|repeat a bunch
Db|-0--0--0--0--0--0--0--0---|
Ab|--------------------------|
Eb|-------3--3--------3--3---|


CHORUS:
   A                         Bm      G
eb|-12--14--12-------------|-15---14---12-------------|
Bb|--------------15-----15-|---------------15-----15--|
Gb|------------------12----|-------------------14-----|
Db|------------------------|--------------------------|
Ab|------------------------|--------------------------|
Eb|------------------------|--------------------------|



VERSE:
D           G      D            G
If it takes hours     then that means miles 
D          G             D         G
and that's longer than i want to spend with you 
D         G        D      G     D           G          D    
At least put the windows down   i'll try to fall asleep. 
D           G      D     G       D       G       D   G
This musics boring can't we find a happy medium? 
D    G     D    G      D        G        D    
Put &serenading on and turn the speakers up. 

CHORUS:
A                            Bm              G
wish on stars that you can't see through this fog. 
A                        Bm    G
One more state and i swear      i'll be gone. 

VERSE:
D             G         D           G     D          G       D
When does the sun rise? eight more hours? that's not even close.
D           G       D        G     D      G       D 
I'm taking shifts switching lanes just to keep up. 

CHORUS:
A                          Bm      G    
No signs of life until the sun penetrates through 
A                           Bm        G
windshield vapors touch the glass and disintegrate. 

D



Dowsing: http://dowsingband.tumblr.com/
Добавлено: 12.11.2013
Другие материалы по этой песне:
  • Аккорды и текст

Страница создана 12.11.2013
http://primanota.ru/dowsing/driving-chords.htm
Привет, Гость.
Предлагаем пройти революционный курс по гитаре.
Подарок от PrimaNota.Ru, забирай!