PrimaNota.ru - самый крупный в мире бесплатный архив песенных текстов, аккордов, табулатур и нот


Dowsing - Amateur Cartography - таба, видео

Регистрация Запомнить меня
Войти через:  Facebook Google Twitter Vk Yandex Mail.ru

Dowsing - Amateur Cartography - таба, видео

Печатать
Просмотров: 128
----------------------------------------------------------------------------
                             AMATEUR CARTOGRAPHY - Dowsing
----------------------------------------------------------------------------
Tuning: Standard


INTRO/INTERLUDE/OUTRO:
e|----------------------------------------------------------------|
B|-12--12--12-12-12-10--10--10-10-10-8---8---8-8-8-8---8---8-8-8--|
G|-0---0---0--0--0--0---0---0--0--0--0---0---0-0-0-0---0---0-0-0--|
D|-x---x---x--x--x--x---x---x--x--x--x---x---x-x-x-x---x---x-x-x--|
A|-10--10--10-10-10-9---9---9--9--9--7---7---7-7-7-7---7---7-7-7--|
E|----------------------------------------------------------------|
(cont)
e|---------------------------------------------------------|
B|-8---8---8-8-8-8---8---8-8-8---3--3-3--3-3---3---3-3-3---|
G|-0---0---0-0-0-0---0---0-0-0---0--0-0--0-0---0---0-0-0---|
D|-x---x---x-x-x-x---x---x-x-x---x--x-x--x-x---x---x-x-x---|
A|-7---7---7-7-7-5---5---5-5-5---3--3-3--3-3---3---3-3-3---|
E|---------------------------------------------------------|


VERSE:
e|--------------------------------------------------------------|
B|---3-----3-3-3-----3----3-3-3----3----3-3-3----3-----3-3-3----|
G|---0-----0-0-0-----0----0-0-0----0----0-0-0----0-----0-0-0----|
D|---0-----0-0-0-----0----0-0-0----0----0-0-0----0-----0-0-0----|
A|-----------x--------------x----2----2---2----3-----3---3------|
E|-3-----3---3-----3----3---3-----------------------------------|

Yep, that's it.
Добавлено: 03.11.2013
Другие материалы по этой песне:
  • Аккорды и текст

Страница создана 22.06.2013
http://primanota.ru/dowsing/amateur-cartography-chords.htm
Привет, Гость.
Предлагаем пройти революционный курс по гитаре.
Подарок от PrimaNota.Ru, забирай!