PrimaNota.ru - самый крупный в мире бесплатный архив песенных текстов, аккордов, табулатур и нот


Downtown Sasquatch - What I Know - таба, бас-таба, видео

Регистрация Запомнить меня
Войти через:  Facebook Google Twitter Vk Yandex Mail.ru

Downtown Sasquatch - What I Know - таба, бас-таба, видео

Печатать
Просмотров: 125
Artist   : Downtown Sasquatch
Title    : What I Know
Album    : Degrassi: The Next Generation

Tabbed by: dustin7up
E-mail   : dustin7up@gmail.com
Tuning   : Drop-D {D,A,D,G,B,e}
Length   : 01:20


August 05, 2007






Intro: (00:00 - 00:11)

     D    G    E    A
e|-----------------------|
B|-----------------------|
G|-----------------------|
D|-----------------------|
A|-----------------------|
D|---0~---5~---2~---7~---|



Verse: (00:12 - 00:23)

     D					  G
e|-----------------------------------------------------------------------------|
B|-----------------------------------------------------------------------------|
G|-----------------------------------------------------------------------------|
D|---0-0-0-0--0-0-0-0--0-0-0-0--0-0-0-0---5-5-5-5--5-5-5-5--5-5-5-5--5-5-5-5---|
A|---0-0-0-0--0-0-0-0--0-0-0-0--0-0-0-0---5-5-5-5--5-5-5-5--5-5-5-5--5-5-5-5---|
D|---0-0-0-0--0-0-0-0--0-0-0-0--0-0-0-0---5-5-5-5--5-5-5-5--5-5-5-5--5-5-5-5---|
  pm . . . .  . . . .  . . . .  . . . .   . . . .  . . . .  . . . .  . . . .

     E					  A
e|-----------------------------------------------------------------------------|
B|-----------------------------------------------------------------------------|
G|-----------------------------------------------------------------------------|
D|---2-2-2-2--2-2-2-2--2-2-2-2--2-2-2-2---7-7-7-7--7-7-7-7--7-7-7-7--7-7-7-7---|
A|---2-2-2-2--2-2-2-2--2-2-2-2--2-2-2-2---7-7-7-7--7-7-7-7--7-7-7-7--7-7-7-7---|
D|---2-2-2-2--2-2-2-2--2-2-2-2--2-2-2-2---7-7-7-7--7-7-7-7--7-7-7-7--7-7-7-7---|
  pm . . . .  . . . .  . . . .  . . . .   . . . .  . . . .  . . . .  . . . .



Pre-Chorus: (00:24 - 00:38)

     B			A		   D
e|------------------------------------------------------------------------------|
B|------------------------------------------------------------------------------|
G|------------------------------------------------------------------------------|
D|---9-9-9-9--9-9-9-9---7-7-7-7--7-7-7-7---0-0-0-0--0-0-0-0--0-0-0-0--0-0-0-0---| {x2}
A|---9-9-9-9--9-9-9-9---7-7-7-7--7-7-7-7---0-0-0-0--0-0-0-0--0-0-0-0--0-0-0-0---|
D|---9-9-9-9--9-9-9-9---7-7-7-7--7-7-7-7---0-0-0-0--0-0-0-0--0-0-0-0--0-0-0-0---|



Chorus: (00:39 - 01:20)

     A			      G
e|-----------------------------------------------------|
B|-----------------------------------------------------|
G|-----------------------------------------------------|
D|---7--7--7-7-7-7--7-7-7-7---5--5--5-5-5-5--5-5-5-5---|___________________________
A|---7--7--7-7-7-7--7-7-7-7---5--5--5-5-5-5--5-5-5-5---|			   |
D|---7--7--7-7-7-7--7-7-7-7---5--5--5-5-5-5--5-5-5-5---|			   |
										   |
     D										   |
e|-----------------------------------------------------------------------------|   | {x2}
B|-----------------------------------------------------------------------------|   |
G|-----------------------------------------------------------------------------|   |
D|---0-0-0-0--0-0-0-0--0-0-0-0--0-0-0-0---0-0-0-0--0-0-0-0--0-0-0-0--0-0-0-0---|___|
A|---0-0-0-0--0-0-0-0--0-0-0-0--0-0-0-0---0-0-0-0--0-0-0-0--0-0-0-0--0-0-0-0---|
D|---0-0-0-0--0-0-0-0--0-0-0-0--0-0-0-0---0-0-0-0--0-0-0-0--0-0-0-0--0-0-0-0---|

     A			      G	     D
e|------------------------------------------------------------------------|
B|------------------------------------------------------------------------|
G|------------------------------------------------------------------------|
D|---7--7--7-7-7-7--7-7-7-7---5~~~---0-0-0-0--0-0-0-0--0-0-0-0--0-0-0-0---|
A|---7--7--7-7-7-7--7-7-7-7---5~~~---0-0-0-0--0-0-0-0--0-0-0-0--0-0-0-0---|
D|---7--7--7-7-7-7--7-7-7-7---5~~~---0-0-0-0--0-0-0-0--0-0-0-0--0-0-0-0---|



Lead Guitar: {I couldn't figure out what the lead guitar was playing, so I just came up with this.
		It sounds pretty good. Just strum the chord when the rhythm guitar is playing that chord.}


Play during Pre-Chorus:		     Play during Chorus:
     B       A       D                A       G       D
e|---19------17------10---------------17------15------10---------|
B|---17------15------8---{x2}---------15------13------8---{x3}---|
G|---16------14------7----------------14------12------7----------|
D|---------------------------------------------------------------|
A|---------------------------------------------------------------|
D|---------------------------------------------------------------|



Verse:

D			  G
I don't know if you'll forgive me,

	  E		       A
For being so blind, To how you felt.

      D				  G
Don't ask me why you couldn't, See it.

           E			    A
And that'd take me years, To figure out.



Pre-Chorus:

    B			 A	      D
And that's not something I know much about,

    B		         A 	 D
But there's only one way to find out. Yeah, Yeah, Yeah



Chorus:

       A	       G
What I know, Is that I hurt you, Oh.

       D
What I know, Is that I suck and what I know is that I'm sorry.

       A		   G
What I know, Is that I'm a loser, Yeah.

       D
What I know, Is I screwed up and then I never learned to trust.

       A	     G					    D
What I know, Is that everything I touch, Just turns to dust.

Добавлено: 28.02.2012
Вам также может быть интересно:
Другие материалы по этой песне:
  • Аккорды и текст

Страница создана 28.02.2012
http://primanota.ru/downtown-sasquatch/what-i-know-chords.htm
Привет, Гость.
Предлагаем пройти революционный курс по гитаре.
Подарок от PrimaNota.Ru, забирай!