PrimaNota.ru - самый крупный в мире бесплатный архив песенных текстов, аккордов, табулатур и нот


Downsound - Vi Som Forandrade Tiden - таба

Регистрация Запомнить меня
Войти через:  Facebook Google Twitter Vk Yandex Mail.ru

Downsound - Vi Som Forandrade Tiden - таба

Печатать
Просмотров: 109
Уроки эстрадного вокала в Санкт-Петербурге
Intro. (x2)
  Esus Em  Esus
e|----------------------------------|
B|-----7h8-7------------------------|
G|-----9---9------------------------|
D|---9-----9------------------------|
A|-7-------7------------------------|
E|----------------------------------|


   C           D         D
e|----------------------------------|
B|-----5-----------7---x-----7------|
G|-----5-----------7---x-----7------|
D|---5-----------7-----x---7--------|
A|-3-----------5---------5----------|
E|----------------------------------|

Intro "solo" (x2)

e|-----------------------10---------|
B|-----7-8-10--------7-8------------|
G|-7/9-----------7/9----------------|
D|----------------------------------|
A|----------------------------------|
E|----------------------------------|




Vers.

  Esus Em  Esus      D           C        C
e|----------------------------------------------------|
B|-----7h8-7-------------7-----------5---x-----5------|
G|-----9---9-------------7-----------5---x-----5------|
D|---9-----9-----------7-----------5-----x---5--------|
A|-7-------7---------5-----------3---------3----------|
E|----------------------------------------------------|

Play the verse 8 or 9 times.
After that it comes an end:

   Esus Em  Esus
e|----------------------------------------|
B|-----7h8-----------7--------5-----------|
G|-----9-------------7--------6-----------|
D|---9-------------7----------------------|
A|-7-------------5----------7-------------|
E|------------------------5---------------|



Ref.

Play powerchords with distortion or open chords:

   Am        C         G         G
e|-0-00------0-00------3-33------3-33-------------|
B|-1-11------1-11------3-33------3-33-------------|
G|-2-22------0-00------0-00------0-00-------------|
D|-2-22------2-22------0-00------0-00-------------|
A|-0-00------3-33------x-xx------x-xx-------------|
E|---------------------3-33------3-33-------------|


After that verse. 2 and refr again .
after that comes a Bridge

   Gm         Eb         Bb         Bb
e|----------------------------------------|
B|------------8----------3----------3-----|
G|-3----------8----------3----------3-----|
D|-5----------8----------3----------3-----|
A|-5----------6----------1----------1-----|
E|-3--------------------------------------|

Play the  bridge 3-4 times.
Then comes the end-chords
   Gm         Eb         Bb         F
e|---------------------------------------|
B|------------8----------3---------------|
G|-3----------8----------3----------2----|
D|-5----------8----------3----------3----|
A|-5----------6----------1----------3----|
E|-3--------------------------------1----|

After bridge there is two moore refr's
And then an outro


Text:
Vers. 1

Ref.

Vers. 2

Ref.

Bridge.

Ref.
Ref.

_________________________________________________________________
     
Добавлено: 10.11.2013
Вам также может быть интересно:
Другие материалы по этой песне:
  • Аккорды и текст

Страница создана 14.09.2013
http://primanota.ru/downsound/vi-som-forandrade-tiden-chords.htm
Привет, Гость.
Предлагаем пройти революционный курс по гитаре.
Подарок от PrimaNota.Ru, забирай!