PrimaNota.ru - самый крупный в мире бесплатный архив песенных текстов, аккордов, табулатур и нот


Downsound - Enemy - таба, видео

Регистрация Запомнить меня
Войти через:  Facebook Google Twitter Vk Yandex Mail.ru

Downsound - Enemy - таба, видео

Печатать
Просмотров: 76
Intro
   A        C      G
e|-----------------------------------
B|-----------------------------------
G|-------------0---------------------
D|-----2----------------0------------
A|-0-0---0--3---------------3-2~-----
E|------------------3-3---3----------

e|-----------------------------------
B|-----------------------------------
G|-------------0---------------------
D|-----2----------------0------------
A|-0-0---0--3---------------3-2h3p2--
E|------------------3-3---3----------


Vers (same as intro)

"Your my opposite...

then there is a disted part

     A         C         G
e|----------------------------------
B|----------------------------------
G|-------------5-5-5-5--------------
D|---7-7-7-7---5-5-5-5---5-5-5-5----
A|---7-7-7-7---3-3-3-3---5-5-5-5----
E|---5-5-5-5-------------3-3-3-3---- x2
'Cuz your still with me in my dreams

   E
e|-------------------------------
B|-------------------------------
G|-------------------------------
D|-2-2-2-2-2-2-------------------
A|-2-2-2-2-2-2-------------------
E|-0-0-0-0-0-0-------------------
I don't need you

Ref

e|----------------------------------
B|----------------------------------
G|----------------------------------
D|-7-7--10-10--5-5-5-5--10-10--9-9--
A|-7-7--10-10--5-5-5-5--10-10--9-9--
E|-5-5--8--8---3-3-3-3--8--8---7-7--


e|--------------------------------------------
B|--------------------------------------------
G|--------------------------------------------
D|-7-7-7-7--10-10-10-10--5-5-5-5--10-10--9-9--
A|-7-7-7-7--10-10-10-10--5-5-5-5--10-10--9-9--
E|-5-5-5-5--8--8--8--8---3-3-3-3--8--8---7-7--




     
Добавлено: 20.06.2013
Вам также может быть интересно:
Другие материалы по этой песне:
  • Аккорды и текст

Страница создана 20.06.2013
http://primanota.ru/downsound/enemy-chords.htm
Привет, Гость.
Предлагаем пройти революционный курс по гитаре.
Подарок от PrimaNota.Ru, забирай!