PrimaNota.ru - самый крупный в мире бесплатный архив песенных текстов, аккордов, табулатур и нот


Downplay - Sleep - таба, видео

Регистрация Запомнить меня
Войти через:  Facebook Google Twitter Vk Yandex Mail.ru

Downplay - Sleep - таба, видео

Печатать
Просмотров: 94
This is tabbed from the version of Sleep on their Radiocalypse album, the one with the acoustic guitar on the
verse. I think the other versions are tuned a bit lower. I didn't tab the one slow part of the song but it
mostly involves the first verse chord and variations of that, mess around with it as I'm not entirely sure


VERSE:

I
e:/-----------------------------------------------------|
B:/-----------------------------------------------------|
G:/--7---7---7---7---7---7---9---9----------------------|
D:/----9---9---9---9---9---9---9---9--------------------|
A:/-----------------------------------------------------|
D:/-----------------------------------------------------|

II
e:/-----------------------------------------------------|
B:/-----------------------------------------------------|
G:/--77-77-77-77-77-9-11-11-11-11-11-9------------------|
D:/--77-77-77-77-77-9-11-11-11-11-11-9------------------|
A:/--55-55-55-55-55-7-99-99-99-99-99-7------------------|
D:/--55-55-55-55-55-7-99-99-99-99-99-7------------------|

PRECHORUS:

I 
e:/-----------------------------------------------------|
B:/----------------7------------------------------------|
G:/--9-7---9-7---9-----9-7------------------------------|
D:/------9-----------9----------------------------------|
A:/-----------------------------------------------------|
D:/-----------------------------------------------------|

II 
e:/-----------------------------------------------------|
B:/-----------------------------------------------------|
G:/--9-7--77777-----------------------------------------|
D:/--9-7--77777-----------------------------------------|
A:/--7-5--55555-----------------------------------------|
D:/--7-5--55555-----------------------------------------|
          .....

CHORUS:
(strumming not shown)

e:/-----------------------------------------------------|
B:/--3--5--8--------------------------------------------|
G:/--2--4--7--------------------------------------------|
D:/--0--2--5--------------------------------------------|
A:/--0--2--5--------------------------------------------|
D:/--0--2--5--------------------------------------------|


BRIDGE:
(strumming not shown)

I
e:/-----------------------------------------------------|
B:/-----------------------------------------------------|
G:/--11--9--7---9---------------------------------------|
D:/--x---x--x---x---------------------------------------|
A:/--9---7--5---7---------------------------------------|
D:/-----------------------------------------------------|

II
e:/-----------------------------------------------------|
B:/-----------------------------------------------------|
G:/--11--9--7---9---------------------------------------|
D:/--11--9--7---9---------------------------------------|
A:/--9---7--5---7---------------------------------------|
D:/--9---7--5---7---------------------------------------|

Добавлено: 21.06.2016
Другие материалы по этой песне:
  • Аккорды и текст

Страница создана 21.06.2016
http://primanota.ru/downplay/sleep-chords.htm
Привет, Гость.
Предлагаем пройти революционный курс по гитаре.
Подарок от PrimaNota.Ru, забирай!