PrimaNota.ru - самый крупный в мире бесплатный архив песенных текстов, аккордов, табулатур и нот


Downhere - More - аккорды и текст, таба, видео

Регистрация Запомнить меня
Войти через:  Facebook Google Twitter Vk Yandex Mail.ru

Downhere - More - аккорды и текст, таба, видео

Печатать
Просмотров: 186
More
Downhere
Downhere
The more
Capo on the 4th fret
Riff:
e----------------------------------|
b----------------------------------|
g--1-------1-------1-------2-2-2-2-|
d----2-2-2---2-2-2---2-2-2---------|
a----------------------------------|
e----------------------------------|

Verse 1:
E
I met you like a little child
E
Wide-eyed and mystified that
C#m B A B
You could love even me
E
I'm here to testify
E
It's been an amazing ride with
C#m B
You and I have never walked alone
A
I wanna give You every moment, every minute
B
It takes a lifetime to
A
Know You,
B
To know You


Chorus:
A E
And the more You show me
C#m B
The more You grow me
C#m A F#m B
The more Your glory becomes all there is
A E
And the more I know You
C#m B
The more I need You
C#m A
The more I love You
F#m B
The more You become to me

Riff

Verse 2:
E
Fast forward to the golden years
E
A smaller pride and a bigger fear but
C#m B A B
Still, no way are we done
E
I pray that You would keep me mystified
E
In every way that I wll still abide in
C#m B
You, Till You come to take me home
A
I wanna give You every moment, every minute
B
It takes a lifetime to
A
Know You
B
To know You

Chorus:
A E
And the more You show me
C#m B
The more You grow me
C#m A F#m B
The more Your glory becomes all there is
A E
And the more I know You
C#m B
The more I need You
C#m A
The more I love You
F#m B
The more You become to me

Riff

Bridge:
A
I wanna give you every moment, every minute
B
I'll take a lifetime to
A
Know You, Lord
F#m
Keep me, draw me closer every moment I'm a-
Other B
live

Chorus x 2

Riff

E:
e---0-------|
b---0-------|
g---3-------|
d---2-------|
a---2-------|
e---0-------|

C#m:
e---0-------|
b---0-------|
g---6-------|
d---6-------|
a---4-------|
e---0-------|

B:
e----0------|
b----0------|
g----4------|
d----4------|
a----2------|
e----0------|

A:
e----0------|
b----0------|
g----2------|
d----2------|
a----0------|
e----0------|

F#m:
e-----2-----|
b-----2-----|
g-----2-----|
d-----4-----|
a-----4-----|
e-----2-----|

Other B:
e-----7-----|
b-----7-----|
g-----8-----|
d-----9-----|
a-----9-----|
e-----7-----|

for clips see http://christianclip.blogspot.com
Добавлено: 03.05.2012
Другие материалы по этой песне:
  • Аккорды и текст

Страница создана 28.04.2012
http://primanota.ru/downhere/more-chords.htm
Привет, Гость.
Предлагаем пройти революционный курс по гитаре.
Подарок от PrimaNota.Ru, забирай!