PrimaNota.ru - самый крупный в мире бесплатный архив песенных текстов, аккордов, табулатур и нот


Downfall - North Berkely - таба, видео

Регистрация Запомнить меня
Войти через:  Facebook Google Twitter Vk Yandex Mail.ru

Downfall - North Berkely - таба, видео

Печатать
Просмотров: 125
Уроки эстрадного вокала в Санкт-Петербурге
-----------------------------------------------------------------------------
                            NORTH BERKLEY - Downfall
-----------------------------------------------------------------------------


      Chords used:
e|-------------------------------2---------------------------------------|
B|-------------------------------3---------------------------------------|
G|--------------2---------7------2---------------------------------------|
D|-------7------2---------7-/or/-0-------2-------------------------------|
A|-------7-/or/-0---------5--------------2-------------------------------|
E|-------5-------------------------------0-------------------------------|
            A                 D          E
For the ska parts, play the top three strings of the barre chord.

A     D
      Yeah!

A     D
Downfall!

A D

A D
This world-dragged him down!


A                                 D
Thinking about the good, the bad, where he was going
A                      D
Living in slow motion, didn't like what it was showing
A                        D
Thinking about his peers moving up and going forward
A                   D
He was going back, losing, being lowered
A            D
He got money and peace and coke and crystal
A                 D
Nagging his life, so he got a pistol
A                   D
He found this girl, pulled the trigger
A                               D
His small problem's now looking bigger bigger bigger!


E
This world dragged him down-It dragged him down down
down!
         D
He said-You gotta fight (fight!) fight (fight!)
fight-Fight without

hesitation!

A D
                North Berkely!
A D
Scene of the crime
A               D
It was a party
A               D
Outta line!

A                  D
Matt took a sucker punch straight to the head
A                         D
He laid down on his back, we thought he was dead
A                            D
We said, Matt, wake up man! Are you ok?
A                                   D
He said, Yeah, gotta catch the kid before he gets
away.
A                       D
We chased the kid down, he didn't get far
A                           D
Chased him down the street, put him up against a car
A              D
We said, Man, what's going on through your head?
A                           D
He said he hates the world, he'd rather be dead


E
This world dragged him down-It dragged him down down
down!
         D
He said-You gotta fight (fight!) fight (fight!)
fight-Fight without

hesitation!

A  D(x4) North Berkely!

Solo:
e|-----------8-7-5-----------------------------------------------------|
B|-----------------8-7-5-----------------------------------------------|
G|-7-7-7-5---------------7-5-5---5---5--7---55---5---5-7---------------|
D|---------7-------------------7---7------5----7---7-------------------|
A|---------------------------------------------------------------------|
E|---------------------------------------------------------------------|

E
This world dragged him down-It dragged him down down
down!
         D
He said-You gotta fight (fight!) fight (fight!)
fight-Fight without

hesitation!


A D-Yeah Yeah!
A D-Yeah Yeah!
A D-Yeah Yeah!
A D
A

-------------------------------------------------------------------------------
Добавлено: 13.04.2012
Другие материалы по этой песне:
  • Аккорды и текст

Страница создана 13.04.2012
http://primanota.ru/downfall/north-berkely-chords.htm
Привет, Гость.
Предлагаем пройти революционный курс по гитаре.
Подарок от PrimaNota.Ru, забирай!