PrimaNota.ru - самый крупный в мире бесплатный архив песенных текстов, аккордов, табулатур и нот


Downfall Of Gaia - Drowning By Wing Beats - таба, видео

Регистрация Запомнить меня
Войти через:  Facebook Google Twitter Vk Yandex Mail.ru

Downfall Of Gaia - Drowning By Wing Beats - таба, видео

Печатать
Просмотров: 121
Уроки эстрадного вокала в Санкт-Петербурге
Downfall of Gaia - Drowning by Wingbeats
drop Db 

/Guitar 1
eb-----------------------------------------------|
Bb-----------------------------------------------|
Gb-10~~---17~~---12~~---17~~---3~---5~-7~~-------|
Db-----------------------------------------------|
Ab-----------------------------------------------|        \
Db-----------------------------------------------|         |
                                                         x14
eb-----------------------------------------------|         |
Bb-----------------------------------------------|        / 
Gb-----------------------------------------------|
Db-----------------------------------------------|
Ab-5~~~-7~-8~-----5~~-7~-8~----7~~--5~~-----8~~--|
Db-----------------------------------------------|
\Guitar 2

both guitars 
(these two lines are one section, you play the first riff line twice then the next twice as a whole two times) 
eb-------------------------------------------------------------------------------|
Bb-------------------------------------------------------------------------------|
Gb-7---------10-------------------------7----------10----------12-12-12-12-12-12-|          \
Db-0---------x---------3---------1-1-1--0----------x-----------x--x--x--x--x--x--|x2         |
Ab-0---------8---------3---------1-1-1--0----------8-----------10-10-10-10-10-10-|           |
Db-0-0-0-0-0-0-0-0-0-0-3-0-0-0-0-1-1-1--0--0-0-0-0-0--0-0-0-0--0--0--0--0--0--0--|           |
                                                                                             x2
eb--------------------------------------------------------------------------|                |
Bb--------------------------------------------------------------------------|                |
Gb-7---------14---------14---------14-14-14-7---------14--------------------|                |
Db-0---------x----------x----------x--x--x--0---------x---------3-0-0-1-1-1-|x2             /
Ab-0---------12---------12---------12-12-12-0---------12--------3-0-0-1-1-1-|
Db-0-0-0-0-0-0--0-0-0-0-0--0-0-0-0-0--0--0--0-0-0-0-0-0-0-0-0-0-3-0-0-1-1-1-|

/Guitar 1
eb--------------------|
Bb--------------------|
Gb---------------5-6--|
Db-2-------0---2-x-x--|
Ab-2-2-2-2-0---2-3-4--|
Db-2-2-2-2-0---2------|

eb---------------------|
Bb---------------------|
Gb---------------------|
Db-2---------0---2-3-4-|
Ab-2-2-2-2-2-0---2-3-4-|
Db-2-2-2-2-2-0---2-3-4-|
\Guitar 2


both guitars
eb-----------------------------------------------------------------|
Bb-----------------------------------------------------------------|
Gb-----------------------------------------------------------------|
Db-0-0-0-0-0-0-0-0-0-0-0-0-0-0-0-0-4-4-4-4-4-4-4-4-3-3-3-3-4-4-4-4-|
Ab-0-0-0-0-0-0-0-0-0-0-0-0-0-0-0-0-4-4-4-4-4-4-4-4-3-3-3-3-4-4-4-4-|
Db-0-0-0-0-0-0-0-0-0-0-0-0-0-0-0-0-4-4-4-4-4-4-4-4-3-3-3-3-4-4-4-4-|
                                                                       x4
eb-----------------------------------------------------------------| 
Bb-----------------------------------------------------------------|
Gb-----------------------------------------------------------------|
Db-0-0-0-0-0-0-0-0-0-0-0-0-0-0-0-0-6-6-6-6-6-6-6-6-3-3-3-3-4-4-4-4-|
Ab-0-0-0-0-0-0-0-0-0-0-0-0-0-0-0-0-6-6-6-6-6-6-6-6-3-3-3-3-4-4-4-4-|
Db-0-0-0-0-0-0-0-0-0-0-0-0-0-0-0-0-6-6-6-6-6-6-6-6-3-3-3-3-4-4-4-4-|

Guitar 1 play this over the last riff after 4 times with both guitars (4 times)      ends on
eb---------------------------------------------------------------------------------|--------||
Bb---------------------------------------------------------------------------------|--------||
Gb-14~~--15~--12~-14~~--------15~~---10~--14~~~~~~---------------------------------|--14----||
Db---------------------------------------------------------------------------------|--0-----||
Ab---------------------------------------------------------------------------------|--0-----||
Db---------------------------------------------------------------------------------|--0-----||
then alone 2 times after that

/Guitar 1
eb---------------------------------------|
Bb------------------------------------5--|
Gb--14--14--14--15--12----7---7--7-3-----|
Db---------------------------------------|
Ab---------------------------------------|
Db---------------------------------------|
                                              x4  then speed up and play 4 more times. 
eb---------------------------------------|
Bb---------------------------------------|
Gb---------------------------------------|
Db--0---0-------0---1-----0---0----0--1--|
Ab--0---0-------0---1-----0---0----0--1--|    
Db--0---0-------0---1-----0---0----0--1--|      
\Guitar 2

End
eb-------|
Bb-------|
Gb--14---|
Db--0----|
Ab--0----|
Db--0----|

Добавлено: 19.12.2015
Вам также может быть интересно:
Другие материалы по этой песне:
  • Аккорды и текст

Страница создана 19.12.2015
http://primanota.ru/downfall-of-gaia/drowning-by-wing-beats-chords.htm
Привет, Гость.
Предлагаем пройти революционный курс по гитаре.
Подарок от PrimaNota.Ru, забирай!