PrimaNota.ru - самый крупный в мире бесплатный архив песенных текстов, аккордов, табулатур и нот


Down - Lies I dont know what they say but - текст песни, таба, видео

Регистрация Запомнить меня
Войти через:  Facebook Google Twitter Vk Yandex Mail.ru

Down - Lies I dont know what they say but - текст песни, таба, видео

Печатать
Просмотров: 263
Авторы: Pepper Keenan, Phil Anselmo, Rex Brown

Lies, i dont know what they say but...

Down II - A bustle in your hedgerow 

tuning - D,G,C,F,A,D (1 step down from standard tuning)

key of F#, kind of slow jazz/blues, fairly easy

drums intro, then bass,

guitar intro (0.17)

d--------------------------------------|
A-----------------------7^(9)~~~~------|
F----4h6~~~---6-4\---------------------| 
C--------------------------------------|
G--------------------------------------|
D--------------------------------------|

main guitar part (0.28)

d----------------------------------|
A----------------------------------|
F-----4---4~---4---4h6p4-----------| 
C--/6---6----4---4-----------------|
G----------------------------------|
D----------------------------------|

guitar solo (1.08) (changes key to G#)

d-------------------------------|-------------------------(quietly)----|
A-------------------------------|----9---9^(11)~~---9h11---11^-^-^-----|
F-----6---6--8^(10)^(10)^(10)~~-|--8---8-------------------------------| 
C--/8---8-----------------------|--------------------------------------|
G-------------------------------|--------------------------------------|
D-------------------------------|--------------------------------------|


break (1.39)


d--------------------------|
A--------------------------|
F----4---5---6---7~~~~-----| 
C--4---4---4---4-----------|
G--------------------------|
D--------------------------|

d--------------------------------|
A--------------------------------|
F----4h6~~~---6-4\---------------| 
C--------------------------------|
G--------------------------------|
D--------------------------------|

back to main riff

another break (2.36)

d--------------------------|
A--------------------------|
F----4---5---6---7~~~~-----| 
C--4---4---4---4-----------|  x2
G--------------------------|
D--------------------------|

d--------------------------------|
A--------------------------------|
F----4h6~~~---6-4\---------------| 
C--------------------------------|
G--------------------------------|
D--------------------------------|

noodling on guitar (F# minor pentatonic)

thats not all the song.. a bit heavy stuff afterwards

i just think that bit is pretty cool - good for jamming along to.
Добавлено: 03.03.2012
Другие материалы по этой песне:

Страница создана 03.03.2012
http://primanota.ru/down/lies-i-dont-know-what-they-say-but-chords.htm
Привет, Гость.
Предлагаем пройти революционный курс по гитаре.
Подарок от PrimaNota.Ru, забирай!