PrimaNota.ru - самый крупный в мире бесплатный архив песенных текстов, аккордов, табулатур и нот


Down - Learn From This Mistake - текст песни, таба, видео

Регистрация Запомнить меня
Войти через:  Facebook Google Twitter Vk Yandex Mail.ru

Down - Learn From This Mistake - текст песни, таба, видео

Печатать
Просмотров: 386
Уроки эстрадного вокала в Санкт-Петербурге
Авторы: Pepper Keenan, Phil Anselmo, Rex Brown

/---------------------------\
|                            |
|  Band:  Down               |
|  Song: Learn From This...  |
|  Album: II                 |
|  Tabbed By: Sam Brokenshaw |
|                            |
\---------------------------/
 |       _Legend_           |
 |                          |
 | HO =Hammer PO =Pull Off  |
 |                          |
 |  --- Under tab = P.M.    |
 |                          |
 |/ =Slide up  \ =Slide down|
 |                          |
 |      ^ =Quarter Bend     |
 |                          |
 |    Bu = Semi tone bend   |
 |                          |
 |    Fu =Full tone bend    |
 |                          |
  ~~~~~~~~~~~~~~~~~~~~~~~~~~


Note: Much of the lead is a guide and is not record perfect.

(0.00) Intro

         B|--------------------------|--------------------------|
         G|--------------------------|--------------------------|
*Guitar1*D|--------------------------|--------------------------|
         A|------2-----5-----4------3|------2-----5-------------|
         E|----2-----5-----4------3--|----2-----5---------------|
{--------B|--0-----3-----2------1----|--0-----3-------~~5~~-----|
{
{
{
{--------B|--------------------------|--------------------------|
         G|--------------------------|--------------------------|
*Guitar2*D|--------------------------|--------------------------|
         A|12ho14-14-----------------|--------------------------|
         E|--------12po10ho12po10ho12|--10ho12--12po10----------|
         B|--------------------------|------------------12------|



(0.13) Verse 1


         B|--------------------------|--------------------------|
         G|--------------------------|--------------------------|
*Guitar1*D|--------------------------|--------------------------|
         A|------2-----5-----4------3|------2-----5-------------|
         E|----2-----5-----4------3--|----2-----5-----~~7~~-----|
{--------B|--0-----3-----2------1----|--0-----3-------~~5~~-----|
{
{
{
{--------B|--------------------------|--------------------------|
         G|--------------------------|--------------------------|
*Guitar2*D|--------------------------|--------------------------|
         A|12ho14-14-----------------|--------------------------|
         E|--------12po10ho12po10ho12|--10ho12--12po10----------|
         B|--------------------------|------------------12------|



         B|--------------------------|--------------------------|
         G|--------------------------|--------------------------|
*Guitar1*D|--------------------------|--------------------------|
         A|------2-----5-----4------3|------2-----5-------------|
         E|----2-----5-----4------3--|----2-----5-----~~7~~-----|
{--------B|--0-----3-----2------1----|--0-----3-------~~5~~-----|
{
{
{
{--------B|--------------------------|--------------------------|
         G|--------------------------|--------------------------|
*Guitar2*D|--------------------------|--------------------------|
         A|12ho14-14-----------------|--------------------------|
         E|--------12po10ho12po10ho12|--10ho12--12po10----------|
         B|--------------------------|------------------12------|



(0.53) Verse Variation

         B|--------------------------|--------------------------|
         G|--------------------------|--------------------------|
*Guitar1*D|--------------------------|--------------------------|
         A|------2-----5-----4------3|------2-----5-------------|
         E|----2-----5-----4------3--|----2-----5-----~~7~~-----|
{--------B|--0-----3-----2------1----|--0-----3-------~~5~~-----|
{
{
{
{--------B|--------------------------|--------------------------|
         G|--------------------------|--------------------------|
*Guitar2*D|--------------------------|--------------------------|
         A|--12ho14--14po12----=-----|--12ho14------------------|
         E|--------------------12----|------------14po12--------|
         B|--------------------------|---------------------12---|

         B|--------------------------|--------------------------|
         G|--------------------------|--------------------------|
*Guitar1*D|--------------------------|--------------------------|
         A|------2-----5-----4------3|------2-----5-------------|
         E|----2-----5-----4------3--|----2-----5-----~~7~~-----|
{--------B|--0-----3-----2------1----|--0-----3-------~~5~~-----|
{
{
{
{--------B|--------------------------|--------------------------|
         G|--------------------------|--------------------------|
*Guitar2*D|--------------------------|--------------------------|
         A|---14pi12ho14-------------|--------------------------|
         E|-----------------12-------|------10--10ho12po10ho12--|
         B|--------------------------|--12----------------------|


(1.05) Chorus


         B|--------------------------------|--------------------------------|
         G|--------------------------------|--------------------------------|
*Guitar1*D|--------------------------------|--------------------------------|
         A|------2------5------------------|------2------5------------------|
         E|----2------5----~~7~~----5------|----2------5----~~7~~----5------|
         B|--0------3------~~5~~--5---5--3-|--0------3------~~5~~--5---5--3-|

         B|--------------------------------|--------------------------------|
         G|--------------------------------|--------------------------------|
*Guitar2*D|--------------------------------|--------------------------------|
         A|-14--12ho14po12--12ho14po12po11-|-14--12ho14po12--12ho14po12po11-|
         E|--------------------------------|--------------------------------|
         B|--------------------------------|--------------------------------|


(1.32) Verse 2

         B|--------------------------|--------------------------|
         G|--------------------------|--------------------------|
*Guitar1*D|--------------------------|--------------------------|
         A|------2-----5-----4------3|------2-----5-------------|
         E|----2-----5-----4------3--|----2-----5-----~~7~~-----|
{--------B|--0-----3-----2------1----|--0-----3-------~~5~~-----|
{
{
{
{--------B|--------------------------|--------------------------|
         G|--------------------------|--------------------------|
*Guitar2*D|--------------------------|--------------------------|
         A|12ho14-14-----------------|--------------------------|
         E|--------12po10ho12po10ho12|--10ho12--12po10----------|
         B|--------------------------|------------------12------|



         B|--------------------------|--------------------------|
         G|--------------------------|--------------------------|
*Guitar1*D|--------------------------|--------------------------|
         A|------2-----5-----4------3|------2-----5-------------|
         E|----2-----5-----4------3--|----2-----5-----~~7~~-----|
{--------B|--0-----3-----2------1----|--0-----3-------~~5~~-----|
{
{
{
{--------B|--------------------------|--------------------------|
         G|--------------------------|--------------------------|
*Guitar2*D|--------------------------|--------------------------|
         A|12ho14-14-----------------|--------------------------|
         E|--------12po10ho12po10ho12|--10ho12--12po10----------|
         B|--------------------------|------------------12------|

(1.59) Verse Variation

         B|--------------------------|--------------------------|
         G|--------------------------|--------------------------|
*Guitar1*D|--------------------------|--------------------------|
         A|------2-----5-----4------3|------2-----5-------------|
         E|----2-----5-----4------3--|----2-----5-----~~7~~-----|
{--------B|--0-----3-----2------1----|--0-----3-------~~5~~-----|
{
{
{
{--------B|--------------------------|--------------------------|
         G|--------------------------|--------------------------|
*Guitar2*D|--------------------------|--------------------------|
         A|--12ho14--14po12----=-----|--12ho14------------------|
         E|--------------------12----|------------14po12--------|
         B|--------------------------|---------------------12---|

         B|--------------------------|--------------------------|
         G|--------------------------|--------------------------|
*Guitar1*D|--------------------------|--------------------------|
         A|------2-----5-----4------3|------2-----5-------------|
         E|----2-----5-----4------3--|----2-----5-----~~7~~-----|
{--------B|--0-----3-----2------1----|--0-----3-------~~5~~-----|
{
{
{
{--------B|--------------------------|--------------------------|
         G|--------------------------|--------------------------|
*Guitar2*D|--------------------------|--------------------------|
         A|---14pi12ho14-------------|--------------------------|
         E|-----------------12-------|------10--10ho12po10ho12--|
         B|--------------------------|--------------------------|



(2.28) Distorted Chorus


         B|----------------------|----------------------|
         G|----------------------|----------------------|
*Guitar1*D|----------------------|----------------------|
         A|--2~~----5~~----7~~---|--2~~----5~~----7~~---|
         E|--2~~----5~~----7~~---|--2~~----5~~----7~~---|
{--------B|--0~~----3~~----5~~---|--0~~----3~~----5~~---|
{
{
{
{--------B|----------------------|----------------------|
         G|----------------------|----------------------|
*Guitar2*D|----------------------|----------------------|
         A|14--12-12ho14po12po11-|14--12-12ho14po12po11-|
         E|----------------------|----------------------|
         B|----------------------|----------------------|



(2.53) Solo1


         B|----------------------|----------------------|
         G|----------------------|----------------------|
*Guitar1*D|----------------------|----------------------|
         A|--2~~----5~~----7~~---|--2~~----5~~----7~~---|
         E|--2~~----5~~----7~~---|--2~~----5~~----7~~---|
{--------B|--0~~----3~~----5~~---|--0~~----3~~----5~~---|
{
{
{
{--------B|----------------------|----------------------|
         G|----------------------|----------------------|
*Guitar2*D|----------------------|----------------------|
         A|----------------------|----------------------|
         E|----------------------|----------------------|
         B|----------------------|----------------------|

         B|----------------------|----------------------|
         G|----------------------|----------------------|
*Guitar1*D|----------------------|----------------------|
         A|--2~~----5~~----7~~---|--2~~----5~~----7~~---|
         E|--2~~----5~~----7~~---|--2~~----5~~----7~~---|
{--------B|--0~~----3~~----5~~---|--0~~----3~~----5~~---|
{
{
{
{--------B|----------------------|----------------------|
         G|----------------------|----------------------|
*Guitar2*D|----------------------|----------------------|
         A|----------------------|----------------------|
         E|----------------------|----------------------|
         B|----------------------|----------------------|



(3.19) Solo 2


         B|----------------------|----------------------|
         G|----------------------|----------------------|
*Guitar1*D|----------------------|----------------------|
         A|--2~~----5~~----7~~---|--2~~----5~~----7~~---|
         E|--2~~----5~~----7~~---|--2~~----5~~----7~~---|
{--------B|--0~~----3~~----5~~---|--0~~----3~~----5~~---|
{
{
{
{--------B|----------------------|----------------------|
         G|----------------------|----------------------|
*Guitar2*D|----------------------|----------------------|
         A|----------------------|----------------------|
         E|----------------------|----------------------|
         B|----------------------|----------------------|



         B|----------------------|----------------------|
         G|----------------------|----------------------|
*Guitar1*D|----------------------|----------------------|
         A|--2~~----5~~----7~~---|--2~~----5~~----7~~---|
         E|--2~~----5~~----7~~---|--2~~----5~~----7~~---|
{--------B|--0~~----3~~----5~~---|--0~~----3~~----5~~---|
{
{
{
{--------B|----------------------|----------------------|
         G|----------------------|----------------------|
*Guitar2*D|----------------------|----------------------|
         A|----------------------|----------------------|
         E|----------------------|----------------------|
         B|----------------------|----------------------|


(3.34) Solo 3


         B|----------------------|----------------------|
         G|----------------------|----------------------|
*Guitar1*D|----------------------|----------------------|
         A|--2~~----5~~----7~~---|--2~~----5~~----7~~---|
         E|--2~~----5~~----7~~---|--2~~----5~~----7~~---|
{--------B|--0~~----3~~----5~~---|--0~~----3~~----5~~---|
{
{
{
{--------B|----------------------|----------------------|
         G|----------------------|----------------------|
*Guitar2*D|----------------------|----------------------|
         A|----------------------|----------------------|
         E|----------------------|----------------------|
         B|----------------------|----------------------|



         B|----------------------|----------------------|
         G|----------------------|----------------------|
*Guitar1*D|----------------------|----------------------|
         A|--2~~----5~~----7~~---|--2~~----5~~----7~~---|
         E|--2~~----5~~----7~~---|--2~~----5~~----7~~---|
{--------B|--0~~----3~~----5~~---|--0~~----3~~----5~~---|
{
{
{
{--------B|----------------------|----------------------|
         G|----------------------|----------------------|
*Guitar2*D|----------------------|----------------------|
         A|----------------------|----------------------|
         E|----------------------|----------------------|
         B|----------------------|----------------------|



(4.11) Interlude x2


B|---------------------------------|---------------------------------|
G|---------------------------------|---------------------------------|
D|---------------------------------|---------------------------------|
A|------2------5-------------------|------2------5-------------------|
E|----2------5----~~7~~----5-------|----2------5----~~7~~----5-------|
B|--0------3------~~5~~--5---3--0--|--0------3------~~5~~--5---3--0--|



(4.36) Verse 3

         B|--------------------------|--------------------------|
         G|--------------------------|--------------------------|
*Guitar1*D|--------------------------|--------------------------|
         A|------2-----5-----4------3|------2-----5-------------|
         E|----2-----5-----4------3--|----2-----5-----~~7~~-----|
{--------B|--0-----3-----2------1----|--0-----3-------~~5~~-----|
{
{
{
{--------B|--------------------------|--------------------------|
         G|--------------------------|--------------------------|
*Guitar2*D|--------------------------|--------------------------|
         A|12ho14-14-----------------|--------------------------|
         E|--------12po10ho12po10ho12|--10ho12--12po10----------|
         B|--------------------------|------------------12------|



         B|--------------------------|--------------------------|
         G|--------------------------|--------------------------|
*Guitar1*D|--------------------------|--------------------------|
         A|------2-----5-----4------3|------2-----5-------------|
         E|----2-----5-----4------3--|----2-----5-----~~7~~-----|
{--------B|--0-----3-----2------1----|--0-----3-------~~5~~-----|
{
{
{
{--------B|--------------------------|--------------------------|
         G|--------------------------|--------------------------|
*Guitar2*D|--------------------------|--------------------------|
         A|12ho14-14-----------------|--------------------------|
         E|--------12po10ho12po10ho12|--10ho12--12po10----------|
         B|--------------------------|------------------12------|

(5.03) Verse Variation

         B|--------------------------|--------------------------|
         G|--------------------------|--------------------------|
*Guitar1*D|--------------------------|--------------------------|
         A|------2-----5-----4------3|------2-----5-------------|
         E|----2-----5-----4------3--|----2-----5-----~~7~~-----|
{--------B|--0-----3-----2------1----|--0-----3-------~~5~~-----|
{
{
{
{--------B|--------------------------|--------------------------|
         G|--------------------------|--------------------------|
*Guitar2*D|--------------------------|--------------------------|
         A|--12ho14--14po12----=-----|--12ho14------------------|
         E|--------------------12----|------------14po12--------|
         B|--------------------------|---------------------12---|

         B|--------------------------|--------------------------|
         G|--------------------------|--------------------------|
*Guitar1*D|--------------------------|--------------------------|
         A|------2-----5-----4------3|------2-----5-------------|
         E|----2-----5-----4------3--|----2-----5-----~~7~~-----|
{--------B|--0-----3-----2------1----|--0-----3-------~~5~~-----|
{
{
{
{--------B|--------------------------|--------------------------|
         G|--------------------------|--------------------------|
*Guitar2*D|--------------------------|--------------------------|
         A|---14pi12ho14-------------|--------------------------|
         E|-----------------12-------|------10--10ho12po10ho12--|
         B|--------------------------|--------------------------|


(5.27) Distorted Chorus

         B|----------------------|----------------------|
         G|----------------------|----------------------|
*Guitar1*D|----------------------|----------------------|
         A|--2~~----5~~----7~~---|--2~~----5~~----7~~---|
         E|--2~~----5~~----7~~---|--2~~----5~~----7~~---|
{--------B|--0~~----3~~----5~~---|--0~~----3~~----5~~---|
{
{
{
{--------B|----------------------|----------------------|
         G|----------------------|----------------------|
*Guitar2*D|--14-14po12ho14po12---|--14-14po12ho14po12---|
         A|----------------------|----------------------|
         E|----------------------|----------------------|
         B|----------------------|----------------------|


(5.56) Solo 4

         B|----------------------|----------------------|
         G|----------------------|----------------------|
*Guitar1*D|----------------------|----------------------|
         A|--2~~----5~~----7~~---|--2~~----5~~----7~~---|
         E|--2~~----5~~----7~~---|--2~~----5~~----7~~---|
{--------B|--0~~----3~~----5~~---|--0~~----3~~----5~~---|
{
{
{
{--------B|----------------------|----------------------|
         G|----------------------|----------------------|
*Guitar2*D|----------------------|----------------------|
         A|14--12-12ho14po12po11-|14--12-12ho14po12po11-|
         E|----------------------|----------------------|
         B|----------------------|----------------------|



         B|----------------------|----------------------|
         G|----------------------|----------------------|
*Guitar1*D|----------------------|----------------------|
         A|--2~~----5~~----7~~---|--2~~----5~~----7~~---|
         E|--2~~----5~~----7~~---|--2~~----5~~----7~~---|
{--------B|--0~~----3~~----5~~---|--0~~----3~~----5~~---|
{
{
{
{--------B|----------------------|----------------------|
         G|----------------------|----------------------|
*Guitar2*D|----------------------|----------------------|
         A|14--12-12ho14po12po11-|14--12-12ho14po12po11-|
         E|----------------------|----------------------|
         B|----------------------|----------------------|



(6.19) Distorted Chorus

         B|----------------------|----------------------|
         G|----------------------|----------------------|
*Guitar1*D|----------------------|----------------------|
         A|--2~~----5~~----7~~---|--2~~----5~~----7~~---|
         E|--2~~----5~~----7~~---|--2~~----5~~----7~~---|
{--------B|--0~~----3~~----5~~---|--0~~----3~~----5~~---|
{
{
{
{--------B|----------------------|----------------------|
         G|----------------------|----------------------|
*Guitar2*D|--Improvise it--------|--improviso-----------|
         A|----------------------|----------------------|
         E|----------------------|----------------------|
         B|----------------------|----------------------|



(6.45) Outro w/clean lead

         B|-------------------------|-------------------------|
         G|-------------------------|-------------------------|
*Guitar1*D|-------------------------|-------------------------|
         A|------2------5-----------|------2------5-----------|
         E|----2------5----~~7~~----|----2------5----~~7~~----|
{--------B|--0------3------~~5~~----|--0------3------~~5~~----|
{
{
{
{--------B|-------------------------|-------------------------|
         G|-------------------------|-------------------------|
*Guitar2*D|--------------12-~14~14~-|------------~16~---------|
         A|-----------14------------|-------------------------|
         E|-------------------------|-------------------------|
         B|-------------------------|-------------------------|

         B|-------------------------|-------------------------|
         G|-------------------------|-------------------------|
*Guitar1*D|-------------------------|-------------------------|
         A|------2------5-----------|------2------5-----------|
         E|----2------5----~~7~~----|----2------5----~~7~~----|
{--------B|--0------3------~~5~~----|--0------3------~~5~~----|
{
{
{
{--------B|-------------------------|-------------------------|
         G|-------------------------|-------------------------|
*Guitar2*D|-----------14-12-~14~14~-|-----12ho14po12----------|
         A|-----------14-12--14-12--|-----------------141po12-|
         E|-------------------------|-------------------------|
         B|-------------------------|-------------------------|



(6.59) Rit.

         B|-------------------------|-------------------------|
         G|-------------------------|-------------------------|
*Guitar1*D|-------------------------|-------------------------|
         A|------2------5-----------|------2------5-----------|
         E|----2------5----~~7~~----|----2------5----~~7~~----|
{--------B|--0------3------~~5~~----|--0------3------~~5~~----|
{
{
{
{--------B|-------------------------|------------------12-----|
         G|-------------------------|-------------------------|
*Guitar2*D|-------------------------|--12ho14--14po12---------|
         A|--12ho14po12-----~11~----|-------------------------|
         E|-------------------------|-------------------------|
         B|-------------------------|-------------------------|

(7.13) End
Добавлено: 07.08.2015
Другие материалы по этой песне:
  • Аккорды и текст

Страница создана 29.03.2012
http://primanota.ru/down/learn-from-this-mistake-chords.htm
Привет, Гость.
Предлагаем пройти революционный курс по гитаре.
Подарок от PrimaNota.Ru, забирай!