PrimaNota.ru - самый крупный в мире бесплатный архив песенных текстов, аккордов, табулатур и нот


Down - Landing On The Mountains Of Meggido - текст песни, таба, видео

Регистрация Запомнить меня
Войти через:  Facebook Google Twitter Vk Yandex Mail.ru

Down - Landing On The Mountains Of Meggido - текст песни, таба, видео

Печатать
Просмотров: 143
Авторы музыки: Phil Anselmo
Авторы текста: Phil Anselmo
Down - Landing on the Mountains of Meggido

Tabbed by Zychu

Tuning: Half step down (Eb,G#,C#,F#,Bb,eb)

Riff 1/Intro:
|--2--5--7--5---2-2-2--2-2-|-2--5--7--5---2-2-2--2-2-|-2--5--7--5---2-2-2--2-2-|
|--3--6--8--6---3-3-3--3-3-|-3--6--8--6---3-3-3--3-3-|-3--6--8--6---3-3-3--3-3-|
|--2--5--7--5---2-2-2--2-2-|-2--5--7--5---2-2-2--2-2-|-2--5--7--5---2-2-2--2-2-|
|--0--0--0--0---0-0-0--0-0-|-0--0--0--0---0-0-0--0-0-|-0--0--0--0---0-0-0--0-0-|
|--------------------------|-------------------------|-------------------------|
|--------------------------|-------------------------|-------------------------|

Riff 2:
|--2--5--4--4----4----4---|--2--5--4--4----4----4---|
|--3--6--5----5----5----5-|--3--6--5----5----5----5-|
|--2--5--4------4----4----|--2--5--4------4----4----|
|--0--0--0----------------|--0--0--0----------------|
|-------------------------|-------------------------|
|-------------------------|-------------------------|

Riff 3:
|--1-0-1-0-1-0-1-3-3-3-3-3-3-|
|--3-3-3-3-3-3-3-3-3-3-3-3-3-|
|--2-2-2-2-2-2-2-2-2-2-2-2-2-|
|--0-0-0-0-0-0-0-0-0-0-0-0-0-|
|----------------------------|
|----------------------------|

Riff 4:
|--------0--7-----------0--7------------0--7-----------0--7-----|
|------6------6-------6------6--------6------6-------6------6---|
|----7----------7---7----------7----7----------7---7----------7-|
|--0--------------0--------------0---------------0--------------|
|---------------------------------------------------------------|
|---------------------------------------------------------------|

Riff 5:
|------5-3--3h5p3---------5-3--3h5p3--------5-3--3h5p3--------5-3--3h5p3---|
|------5-3--------5-------5-3--------3------5-3--------5------5-3--------3-|
|----2------------------2-----------------2-----------------2--------------|
|--------------------------------------------------------------------------|
|--0-----------------0------------------0-----------------0----------------|
|--------------------------------------------------------------------------|

Riff 6:
|---------------------------------------------------|
|-------------0-1-0-------------------0-1-0---------|
|-------0---0-------0-----------0---0-------0-------|
|-----2---2-----------2-------2---2-----------2-----|
|---2-------------------2---2-------------------2---|
|-0-----------------------0-----------------------0-|

Outro:
|-------------|           |----------------------|
|---------5---|           |-------4-----3-----2--|
|-------4-----| X8 then   |-----4-----3-----2----|
|-------------|           |----------------------|
|-----2-------|           |---3-----2-----1------|
|---0---------|           |----------------------|

Intro
Riff 2
Riff 1 
Riff 2
Riff 3 x4
Riff 1
Riff 2
Riff 1
Riff 2
Riff 3 x8
Riff 4
Riff 5
Riff 6 x2
Riff 1
Riff 2
Riff 1
Riff 2
Riff 3 x4
Riff 1
Riff 2
Riff 1
Riff 2
Riff 3 x8
Riff 4
Riff 5
Riff 6 x2
Outro  x6
Добавлено: 06.05.2012
Другие материалы по этой песне:

Страница создана 22.02.2012
http://primanota.ru/down/landing-on-the-mountains-of-meggido-chords.htm
Привет, Гость.
Предлагаем пройти революционный курс по гитаре.
Подарок от PrimaNota.Ru, забирай!