PrimaNota.ru - самый крупный в мире бесплатный архив песенных текстов, аккордов, табулатур и нот


Down To Nothing - Higher Learning - таба, видео

Регистрация Запомнить меня
Войти через:  Facebook Google Twitter Vk Yandex Mail.ru

Down To Nothing - Higher Learning - таба, видео

Печатать
Просмотров: 73
DOWN TO NOTHING - HIGHER LEARNING

e|-------------------------------------------------|
B|-------------------------------------------------|
G|-----555---------77-88-----555-----888-1212-1313-|
D|-333-555---------77-88-333-555-----888-1212-1313-| x4
A|-333-333-666-111-55-66-333-333-666-666-1010-1111-|
D|-333-----666-111-------333-----666---------------|

e|-----------------------------|
B|-----------------------------|
G|-------5-5-5-5---------------|
D|-3-----5-5-5-5-6-----9-9-9-9-| 1,3
A|-3-333-3-3-3-3-6-666-9-9-9-9-|
D|-3-333---------6-666-9-9-9-9-|
     P M           P M

e|------------------------------|
B|------------------------------|
G|-------5-5-5-5----------12-13-|
D|-3-----5-5-5-5-6-----9--12-13-| 2,5
A|-3-333-3-3-3-3-6-666-9--10-11-|
D|-3-333---------6-666-9--------|
     P M           P M

e|----------------------------|
B|----------------------------|
G|----------------------12-13-|
D|-8-----8-----8----9---12-13-| 4,6
A|-8-888-8-888-8-88-9---10-11-|
D|-8-888-8-888-8-88-9---------|
     P M   P M   PM

e|--------------------|
B|--------------------|
G|--------------------|
D|-1-------------1--1-|
A|-1-1-1-1-1-1-1-1--1-|
D|-1-1-1-1-1-1-1-1--1-|
     P M P M P M

e|-------------------------------------------------|
B|-------------------------------------------------|
G|-----555---------77-88-----555-----888-1212-1313-|
D|-333-555---------77-88-333-555-----888-1212-1313-| x2
A|-333-333-666-111-55-66-333-333-666-666-1010-1111-|
D|-333-----666-111-------333-----666---------------|

e|-----------------------------|
B|-----------------------------|
G|-------5-5-5-5---------------|
D|-3-----5-5-5-5-6-----9-9-9-9-| 1,3
A|-3-333-3-3-3-3-6-666-9-9-9-9-|
D|-3-333---------6-666-9-9-9-9-|
     P M           P M

e|------------------------------|
B|------------------------------|
G|-------5-5-5-5-------------12-|
D|-3-----5-5-5-5-6-----9-----12-| 2
A|-3-333-3-3-3-3-6-666-9-9-9-10-|
D|-3-333---------6-666-9-9-9----|
     P M           P M   P M

e|----------------------------|
B|----------------------------|
G|----------------------12-13-|
D|-8-----8-----8----9---12-13-| 4
A|-8-888-8-888-8-88-9---10-11-|
D|-8-888-8-888-8-88-9---------|
     P M   P M   PM

e|---------------------------------|
B|---------------------------------|
G|-------5-----5-------------------|
D|-3-----5-5-5-5-5-6-----9-----9---| 1,3
A|-3-3-3-3-3-3-3-3-6-6-6-9-9-9-9-9-|
D|-3-3-3-----------6-6-6-9-9-9-9-9-|
     P M   P M   PM  P M   P M   PM

e|-----------------------------------|
B|-----------------------------------|
G|-------5-----5---------------------|
D|-3-----5-5-5-5-5-6-----9-----12/13-| 2
A|-3-3-3-3-3-3-3-3-6-6-6-9-9-9-10/11-|
D|-3-3-3-----------6-6-6-9-9-9-------|
     P M   P M   PM  P M   P M 

e|--------------------------------|
B|--------------------------------|
G|--------------------------------|
D|-------------------------12--13-|
A|-8-8-8-8-8-8-8-8-9-9-9-9-10--11-|
D|-8-8-8-8-8-8-8-8-9-9-9-9--------|
   P M P M P M P M P M P M

e|----------------------------------------------|
B|----------------------------------------------|
G|-----55555----------------55555---------12-13-|
D|-333-55555-666-999999-----55555-666-999-12-13-|
A|-333-33333-666-999999-333-33333-666-999-10-11-|
D|-333-------666-999999-333-------666-999-------|

e|-----------------------------------------|
B|-----------------------------------------|
G|-----55555-------------------------------|
D|-333-55555-666-999999-888888-999-9-8-1-0-|
A|-333-33333-666-999999-888888-999-9-8-1-0-|
D|-333-------666-999999-888888-999-9-8-1-0-|
                                   PMP M

e|---------------------------------0-----0-----|
B|-----------------------------------3-----3---|
G|-------------------------------------2-----2-|
D|-5\4---5\4---4----5\4---5\4---0--------------|
A|-3\2-0-3\2-0-2----3\2-0-3\2-0-0--------------|
D|-----0-----0----------0-----0-0--------------|
       PM    PM         PM    PM

    e|-------------------------------------------------|
    B|-------------------------------------------------|
GTR G|-------------------------------------------------|
 1  D|-5\4---5\4---4--------5\4---5\4---0--------------|
    A|-3\2-0-3\2-0-2--2-/9--3\2-0-3\2-0-0--0-0-0-0-0-0-|
    D|-----0-----0--------------0-----0-0--0-0-0-0-0-0-|
           PM    PM             PM    PM   P M P M P M

    e|-------------------------------------------------|
    B|-------------------------------------------------|
GTR G|-------------------------------------17BU(19)----|
 2  D|-5\4---5\4---4--------5\4---5\4---0--------------|
    A|-3\2-0-3\2-0-2--2-/9--3\2-0-3\2-0-0--------------|
    D|-----0-----0--------------0-----0-0--------------|
           PM    PM             PM    PM

e|-----------------------------------|
B|-----------------------------------|
G|-----------------------------------|
D|-5\4---5\4---4----5\4---5\4---0----| x2
A|-3\2-0-3\2-0-2----3\2-0-3\2-0-0----|
D|-----0-----0----------0-----0-0----|
       PM    PM         PM    PM

e|---------------------------------------------------|
B|---------------------------------------------------|
G|---------------------------------------------------|
D|-5\4---5\4---4-44-4-44-4--5\4---5\4---0-----0----0-|
A|-3\2-0-3\2-0-2-22-2-22-2--3\2-0-3\2-0-0--00-0-00-0-|
D|-----0-----0------------------0-----0-0--00-0-00-0-|
       PM    PM  PM   PM        PM    PM   PM   PM

e|----------------------------------------|
B|----------------------------------------|
G|----------------------------------------|
D|-5\4---5\4---4-44-4-44-4--5\4---5\4---0-|
A|-3\2-0-3\2-0-2-22-2-22-2--3\2-0-3\2-0-0-|
D|-----0-----0------------------0-----0-0-|
       PM    PM  PM   PM        PM    PM 
Добавлено: 07.07.2013
Другие материалы по этой песне:
  • Аккорды и текст

Страница создана 07.07.2013
http://primanota.ru/down-to-nothing/higher-learning-chords.htm
Привет, Гость.
Предлагаем пройти революционный курс по гитаре.
Подарок от PrimaNota.Ru, забирай!