PrimaNota.ru - самый крупный в мире бесплатный архив песенных текстов, аккордов, табулатур и нот


Down To Nothing - Along For The Ride - бас-таба, видео

Регистрация Запомнить меня
Войти через:  Facebook Google Twitter Vk Yandex Mail.ru

Down To Nothing - Along For The Ride - бас-таба, видео

Печатать
Просмотров: 112
Band:  Down to Nothing
Song:  Along For the Ride
Album: The Most
Genre: Hardcore
Year:  2007

Tabbed by MustangMan311
E-mail: MustangMan311@aol.com

Intro

G|------------------------------|
D|------------------------------|
A|----------------------5h6-3h5-|
D|-0-00-3-0-2h6-x3--0000--------|

G|------------------------------|
D|------------------------------|
A|------------------------------|
D|-0-00-3-0-2h6-x3--00000000----|

Verse 1

G|------------------------------|
D|------------------------------|
A|----------------------5h6-3h5-|
D|-0-00-3-0-2h6-x3--0000--------|

G|------------------------------|
D|------------------------------|
A|------------------------------|
D|-0-00-3-0-2h6-x3--00000000----|

Chorus

G|------------------------------|
D|------------------------------|
A|------------------------------|
D|-333-555-66-x3--333-666-5b----|

Verse 2

G|------------------------------|
D|------------------------------|
A|----------------------5h6-3h5-|
D|-0-00-3-0-2h6-x3--0000--------|

G|------------------------------|
D|------------------------------|
A|----------------------5h6-3h5-|
D|-0-00-3-0-2h6-x3--0000--------|

Chorus

G|------------------------------|
D|------------------------------|
A|------------------------------|
D|-333-555-66-x3--333-666-5b----|

Breakdown x2

G|------------------------------|
D|------------------------------|
A|-----------5h6-5h6------------|
D|-0-0-3~--0--------------------|

G|------------------------------|
D|------------------------------|
A|-----------5h6-4~-------------|
D|-0-0-3~--0--------------------|


G|------------------------------|
D|------------------------------|
A|-----------5h6-5h6------------|
D|-0-0-3~--0--------------------|

G|------------------------------|
D|------------------------------|
A|-----------5h6-4~-------------|
D|-0-0-3~--0--------------------|
Добавлено: 28.07.2012
Вам также может быть интересно:
Другие материалы по этой песне:

Страница создана 01.07.2012
http://primanota.ru/down-to-nothing/along-for-the-ride-chords.htm
Привет, Гость.
Предлагаем пройти революционный курс по гитаре.
Подарок от PrimaNota.Ru, забирай!