PrimaNota.ru - самый крупный в мире бесплатный архив песенных текстов, аккордов, табулатур и нот


Down To Earth Approach - Were Sleeping - текст песни, таба, видео

Регистрация Запомнить меня
Войти через:  Facebook Google Twitter Vk Yandex Mail.ru

Down To Earth Approach - Were Sleeping - текст песни, таба, видео

Печатать
Просмотров: 90
Уроки эстрадного вокала в Санкт-Петербурге
http://www.downtoearthapproach.com/site2/


standard tuning
~-let ring
/-slide up
\-slide down
.-Palm Mute
Intro
Guitar 1
e|---------------------------------------------------------------------------|X2
B|---------------------------------------------------------------------------|
G|----0------0-----0-----0-----0-----0-----0----0----------------------------|
D|---4-4----4-4---0-0---0-0---0-0---0-0---0-0--0-0---------------------------|
A|--5------5/-----7/---9-----9-----9-----9----9------------------------------|
E|---------------------------------------------------------------------------|
Guitar 2 (after the first time guitar 1)
e|-------------------------------------------------------------------------|
B|-------------------------------------------------------------------------|
G|-------------------------------------------------------------------------|
D|--5~-----------7~--------------------------------------------------------|
A|--5~-----------7~--------------------------------------------------------|
E|--3~-----------5~--------------------------------------------------------|

Verse
Guitar 1
e|---------------------------------------------------------------------------|X4
B|---------------------------------------------------------------------------|
G|----0------0-----0-----0-----0-----0-----0----0----------------------------|
D|---4-4----4-4---0-0---0-0---0-0---0-0---0-0--0-0---------------------------|
A|--5------5/-----7/---9-----9-----9-----9----9------------------------------|
E|---------------------------------------------------------------------------|

Guitar 1 (light palm mute)
e|---------------------------------------------------------------------------|X4
B|---------------------------------------------------------------------------|
G|---------------------------------------------------------------------------|
D|--7-7-7-7-7-7-7-7-7-7-7-7-7-7-7-7-7-7-7-7-7-7-7-7--------------------------|
A|--7-7-7-7-7-7-7-7-7-7-7-7-7-7-7-7-7-7-7-7-7-7-7-7--------------------------|
E|--5-5-5-5-5-5-5-5-5-5-5-5-5-5-5-5-5-5-5-5-5-5-5-5--------------------------|
    ...............................................
Chorus:
Guitar 1
e|-------------------------------------------------------------------------|
B|-------------------------------------------------------------------------|
G|-------------------------------------------------------------------------|
D|-5-5-5-5-5-5-5-5---9-9-9---7-7-7-7-7-7-7-7-------------------------------|
A|-5-5-5-5-5-5-5-5---9-9-9---7-7-7-7-7-7-7-7-------------------------------|
E|-3-3-3-3-3-3-3-3---7-7-7---5-5-5-5-5-5-5-5-------------------------------|
Guitar 2
e|---------------------------------------------------------------------------|
B|---------------------------------------------------------------------------|
G|-7-7-7-7-7-7-7-7---12-11---9-9-9-9-9-9-9-9---------------------------------|
D|---------------------------------------------------------------------------|
A|-5-5-5-5-5-5-5-5---10--9---7-7-7-7-7-7-7-7---------------------------------|
E|---------------------------------------------------------------------------|

Guitar 1
e|---------------------------------------------------------------------------|
B|---------------------------------------------------------------------------|
G|----0------0-----0-----0-----0-----0-----0----0----------------------------|
D|---4-4----4-4---0-0---0-0---0-0---0-0---0-0--0-0---------------------------|
A|--5------5/----7/---9-----9-----9-----9----9-------------------------------|
E|---------------------------------------------------------------------------|
Guitar 2
e|---------------------------------------------------------------------------|
B|---------------------------------------------------------------------------|
G|---------------------------------------------------------------------------|
D|--5~-----------7~----------------------------------------------------------|
A|--5~-----------7~----------------------------------------------------------|
E|--3~-----------5~-------------------5--------------------------------------|

Chorus:
Guitar 1
e|-------------------------------------------------------------------------|
B|-------------------------------------------------------------------------|
G|-------------------------------------------------------------------------|
D|-5-5-5-5-5-5-5-5---9-9-9---7-7-7-7-7-7-7-7-------------------------------|
A|-5-5-5-5-5-5-5-5---9-9-9---7-7-7-7-7-7-7-7-------------------------------|
E|-3-3-3-3-3-3-3-3---7-7-7---5-5-5-5-5-5-5-5-------------------------------|
Guitar 2
e|-------------------------------------------------------------------------|
B|-------------------------------------------------------------------------|
G|-7-7-7-7-7-7-7-7---12-11---9-9-9-9-9-9-9-9-------------------------------|
D|-------------------------------------------------------------------------|
A|-5-5-5-5-5-5-5-5---10--9---7-7-7-7-7-7-7-7-------------------------------|
E|-------------------------------------------------------------------------|

Breakdown:
Guitar 1
e|---------------------------------------------------------------------------|X4
B|---------------------------------------------------------------------------|
G|---------------------------------------------------------------------------|
D|-5-5-5-5-5-5-5-5---9-9-9---7-7-7-7-7-7-7-7---------------------------------|
A|-5-5-5-5-5-5-5-5---9-9-9---7-7-7-7-7-7-7-7---------------------------------|
E|-3-3-3-3-3-3-3-3---7-7-7---5-5-5-5-5-5-5-5---------------------------------|
Guitar 2
e|---------------------------------------------------------------------------|
B|-77--55---77--55--7/8-8-8--10-10-10--7-7-----------------------------------|
G|---------------------------------------------------------------------------|
D|---------------------------------------------------------------------------|
A|---------------------------------------------------------------------------|
E|----------------------------------------------------------------------\----|
                                                                         \
e|---------------------------------------------------------------------------| X4
B|-77--55--77--55---7/8-8-8--10-10-10h12-10-7/8------------------------------|
G|---------------------------------------------------------------------------|
D|---------------------------------------------------------------------------|
A|---------------------------------------------------------------------------|
E|---------------------------------------------------------------------------|
Guitar 1
e|---------------------------------------------------------------------------|X4
B|---------------------------------------------------------------------------|
G|----0------0-----0-----0-----0-----0-----0----0----------------------------|
D|---4-4----4-4---0-0---0-0---0-0---0-0---0-0--0-0---------------------------|
A|--5------5/-----7/---9-----9-----9-----9----9------------------------------|
E|---------------------------------------------------------------------------|
                                                    ^
Guitar 2 (come in after the second time he does this^)
e|---------------------------------------------------------------------------|X2
B|----5---7---10---10-----5---7---10---10---10--10--10--10--10--10--10--10---|
G|--7---7---7----7------7---7---7----7--------7----7---7---7---7---7---7-----|
D|---------------------------------------------------------------------------|
A|---------------------------------------------------------------------------|
E|---------------------------------------------------------------------------|

Guitar 1
e|-------------------------------------------------------------------------|
B|-------------------------------------------------------------------------|
G|-------------------------------------------------------------------------|
D|--9-----7----5-----------------------------------------------------------|
A|--9-----7----5-----------------------------------------------------------|
E|--7-----5----3-----------------------------------------------------------|

Chorus:till the end of the song
Guitar 1
e|-------------------------------------------------------------------------|
B|-------------------------------------------------------------------------|
G|-------------------------------------------------------------------------|
D|-5-5-5-5-5-5-5-5---9-9-9---7-7-7-7-7-7-7-7-------------------------------|
A|-5-5-5-5-5-5-5-5---9-9-9---7-7-7-7-7-7-7-7-------------------------------|
E|-3-3-3-3-3-3-3-3---7-7-7---5-5-5-5-5-5-5-5-------------------------------|
Guitar 2
e|-------------------------------------------------------------------------|
B|-------------------------------------------------------------------------|
G|-7-7-7-7-7-7-7-7---12-11---9-9-9-9-9-9-9-9-------------------------------|
D|-------------------------------------------------------------------------|
A|-5-5-5-5-5-5-5-5---10--9---7-7-7-7-7-7-7-7-------------------------------|
E|-------------------------------------------------------------------------|

Guitar 2 (i think guitar 2 does this at 3:11 im not sure) till the end
e|-------------------------------------------------------------------------|
B|-10---10---10---10---10---10---10---10---10---10---10---10---10---10---10|
G|----7----7----7----7----7----7----7----7----7----7----7----7----7----7---|
D|-------------------------------------------------------------------------|
A|-------------------------------------------------------------------------|
E|-------------------------------------------------------------------------|


thats it have fun playing. DTEA rocks!
Добавлено: 12.07.2012
Другие материалы по этой песне:

Страница создана 31.03.2012
http://primanota.ru/down-to-earth-approach/were-sleeping-chords.htm
Привет, Гость.
Предлагаем пройти революционный курс по гитаре.
Подарок от PrimaNota.Ru, забирай!