PrimaNota.ru - самый крупный в мире бесплатный архив песенных текстов, аккордов, табулатур и нот


Down By Law - Tattoo - аккорды и текст, таба, видео

Регистрация Запомнить меня
Войти через:  Facebook Google Twitter Vk Yandex Mail.ru

Down By Law - Tattoo - аккорды и текст, таба, видео

Печатать
Просмотров: 127
Tattoo
Down By Law
Song: Flower Tattoo
Artist: Down By Law
Album: PunkRockAcadamyFightSong
Transcribed by: wBeElz (rbreck@foxnet.net)

This song is really simple, only 2 differnt parts.

Part 1
------

E|---------------------------------------|
B|---------------------------------------|
G|----------------------------7---9------|
D|--9-----8-7----8-9-----8-7--7---9------|
A|--9-----8-7----8-9-----8-7--5---7------|
E|--7-----6-5----6-7-----6-5-------------|


Part 2
------

E|------------------------------------------------|
B|------------------------------------------------|
G|---------9---------9---------9-----------9------|
D|----7----9----9----9----9----9----7--7---9------|
A|----9----7----9----7----9----7----7--7---7------|
E|----7---------7---------7---------5--5----------|


(with part 1)

do you wanna, go for a walk?
you can hold my hand, we can laugh and talk,
you can lead the way, which way ya wanna go?
tell me all the things, I really wanna know.

(with part 2)

hair is gold and her eyes are blue,
i'm in love with the gilr with the flower tattoo.

(part 1)

with a t-shirt, sneakers and faded blue jeans,
a pocket in the back, ripped at the seams,
she really doesn't care, what they hear and see,
what they think about her, what they think about me.

(part 2)

hair is gold and her eyes are blue,
i'm in love with the girl with the flower tattoo
and if i wrote the perfect song, you know i'd name it after you.


If anyone knows Sympathy for the World, would you please tab it out? 

send all comments to rbreck@foxnet.net



Добавлено: 03.11.2013
Другие материалы по этой песне:
  • Аккорды и текст

Страница создана 09.03.2012
http://primanota.ru/down-by-law/tattoo-chords.htm
Привет, Гость.
Предлагаем пройти революционный курс по гитаре.
Подарок от PrimaNota.Ru, забирай!