PrimaNota.ru - самый крупный в мире бесплатный архив песенных текстов, аккордов, табулатур и нот


Down By Law - Radio Ragga - текст песни, таба, видео

Регистрация Запомнить меня
Войти через:  Facebook Google Twitter Vk Yandex Mail.ru

Down By Law - Radio Ragga - текст песни, таба, видео

Печатать
Просмотров: 117
Авторы музыки: Dave Smalley
Авторы текста: Dave Smalley
-------------------------------------------------------------------------------
                             Radio Ragga- Down By Law
-------------------------------------------------------------------------------
Tabbed by:Joshinthemosh
E-mail:jgarciacotter@yahoo.com

This is my first tab. Please feel free to give me any feedback. Thanks

Tuning: Standard

Bass Intro

Upstroke
e|--------------------------------------------------------------------------|
B|--4--4--6--6--4--4--6--6--------------------------------------------------|
G|--4--4--6--6--4--4--6--6--------------------------------------------------|
D|--4--4--6--6--4--4--6--6----------------x3--------------------------------|
A|--2--2--4--4--2--2--4--4--------------------------------------------------|
E|--------------------------------------------------------------------------|

After one time through
e|----------44---------------------------44---------------------------------|
B|-------7-----7---7-54-7-5h4----------7------7—-working on this last bit---|
G|------4---------------------------4-----------same idea as the last part--|
D|--------------------------------------------------------------------------|
A|---------------------------------------------------x2---------------------|
E|--------------------------------------------------------------------------|

Palm Mute
e|--------------------------------------------------------------------------|
B|--------------------------------------------------------------------------|
G|-4444---6666--------------------------------------------------------------|
D|-4444---6666---------x11--------------------------------------------------|
A|-2222---4444--------------------------------------------------------------|
E|--------------------------------------------------------------------------|

Radio can you save…
e|--------------------------------------------------------------------------|
B|--4--4--6--6--4--4--6--6--------------------------------------------------|
G|--4--4--6--6--4--4--6--6--------------------------------------------------|
D|--4--4--6--6--4--4--6--6----------------x4--------------------------------|
A|--2--2--4--4--2--2--4--4--------------------------------------------------|
E|--------------------------------------------------------------------------|

Go down without a fight
e|----------------------------------------------------------------------------|
B|----------------------------------------------------------------------------|
G|--4444----------------------------------9-----------------9-----------------|
D|--4444-----2----------------xxx-9----7--9--9----xxx-9--7--9--9--------------|
A|--2222-----2----------------xxx-9----7--7--9----xxx-9--7--7--9--------------|
E|-----------0----------------xxx-7----5-----7----xxx-7--5-----7--------------|

e|--------------------------------------------------------------------------|
B|--------------------------------------------------------------------------|
G|-------------9------------------------------------------------------------|
D|--xxx--9--7--9--9---------------------------999---------------------------|
A|--xxx--9--7--7--9---------------------------999---------------------------|
E|--xxx--7--5-----7---------------------------777---------------------------|

e|--------------------------------------------------------------------------|
B|--------------------------------------------------------------------------|
G|-----6666----------9999---------------------------------------------------|
D|-----6666---7777---9999--9999—x2-----------7--------7---------------------|
A|-----4444---7777---7777--9999--------------7--------7---------------------|
E|------------5555---------7777--------------5--------5---------------------|

Upstroke
e|--------------------------------------------------------------------------|
B|--4--4--6--6--4--4--6--6--------------------------------------------------|
G|--4--4--6--6--4--4--6--6--------------------------------------------------|
D|--4--4--6--6--4--4--6--6----------------x3--------------------------------|
A|--2--2--4--4--2--2--4--4--------------------------------------------------|
E|--------------------------------------------------------------------------|

After one time through
e|----------44---------------------------44---------------------------------|
B|-------7-----7---7-54-7-5h4----------7------7—-working on this last bit---|
G|------4---------------------------4-----------same idea as the last part--|
D|--------------------------------------------------------------------------|
A|---------------------------------------------------x2---------------------|
E|--------------------------------------------------------------------------|

Palm Mute
e|--------------------------------------------------------------------------|
B|--------------------------------------------------------------------------|
G|-4444---6666--------------------------------------------------------------|
D|-4444---6666---------x11--------------------------------------------------|
A|-2222---4444--------------------------------------------------------------|
E|--------------------------------------------------------------------------|

Upstroke
e|--------------------------------------------------------------------------|
B|--4--4--6--6--4--4--6--6--------------------------------------------------|
G|--4--4--6--6--4--4--6--6--------------------------------------------------|
D|--4--4--6--6--4--4--6--6----------------x4--------------------------------|
A|--2--2--4--4--2--2--4--4--------------------------------------------------|
E|--------------------------------------------------------------------------|

..streets are empty…
e|----------------------------------------------------------------------------|
B|----------------------------------------------------------------------------|
G|--4444----------------------------------9-----------------9-----------------|
D|--4444-----2----------------xxx-9----7--9--9----xxx-9--7--9--9--------------|
A|--2222-----2----------------xxx-9----7--7--9----xxx-9--7--7--9--------------|
E|-----------0----------------xxx-7----5-----7----xxx-7--5-----7--------------|

e|--------------------------------------------------------------------------|
B|--------------------------------------------------------------------------|
G|-------------9------------------------------------------------------------|
D|--xxx--9--7--9--9---------------------------999---------------------------|
A|--xxx--9--7--7--9---------------------------999---------------------------|
E|--xxx--7--5-----7---------------------------777---------------------------|

e|--------------------------------------------------------------------------|
B|--------------------------------------------------------------------------|
G|-----6666----------9999---------------------------------------------------|
D|-----6666---7777---9999--9999—x2-----------7--------7---------------------|
A|-----4444---7777---7777--9999--------------7--------7---------------------|
E|------------5555---------7777--------------5--------5---------------------|

Solo(work in progress)
e|-------------4b-----4-----------------------------------------------------|
B|----------7-----7------7---------4h54--4---------------this is that-------|
G|--------4--4--------------------------6--6--44----------working part------|
D|--------------------------------------------------------------------------|
A|--------------------------------------------------------------------------|
E|--------------------------------------------------------------------------|

Rhythm Guitar under solo
e|--------------------------------------------------------------------------|
B|--------------------------------------------------------------------------|
G|-----6666----------9999---------------------------------------------------|
D|-----6666---7777---9999--9999—x2-----------7--------7---------9-----------|
A|-----4444---7777---7777--9999--------------7--------7---------9-----------|
E|------------5555---------7777--------------5--------5---------7-----------|


e|--------------------------------------------------------------------------|
B|--------5-4---------------------------------------------------------------|
G|-----------4----x5-----------666------------------------------------------|
D|-----------------------------666---777----999-----------------------------|
A|-----------------------------444---777----999-----------------------------|
E|-----------------------------------555----777-----------------------------|

e|--------------------------------------------------------------------------|
B|--------------------------------------------------------------------------|
G|--------9999--------9999--------9999--------------------------------------|
D|--9999--9999--9999--9999--9999--9999----7-----7/4-------------------------|
A|--9999--7777--9999--7777--9999--7777----7-----7/4-------------------------|
E|--7777--------7777--------7777----------5-----5/2-------------------------|

Upstroke
e|--------------------------------------------------------------------------|
B|--4--4--6--6--4--4--6--6------------------------------------7-------------|
G|--4--4--6--6--4--4--6--6---------------------------------4----------------|
D|--4--4--6--6--4--4--6--6----------------- --------------------------------|
A|--2--2--4--4--2--2--4--4--------------------------------------------------|
E|--------------------------------------------------------------------------|

e|--------------------------------------------------------------------------|
B|----------------------------------------------------------------4h54------|
G|----4444---------------4444-------4444------4444--------4444---------4----|
D|----4444---------------4444-------4444------4444--------4444--------------|
A|----2222---------------2222-------2222------2222--------2222--------------|
E|--------------------------------------------------------------------------|

Bass

Palm Mute                       Open
e|--------------------------------------------------------------------------|
B|-----4444-----6666------------------4444----6666--------4444----6666------|
G|-----4444-----6666------------------4444----6666--------4444----6666------|
D|-----4444-----6666--------------------------------------------------------|
A|--------------------------------------------------------------------------|
E|--------------------------------------------------------------------------|


e|----------------------------------------------------------------------------|
B|----------------------------------------------------------------------------|
G|------------9---------------------------9-----------------9-----------------|
D|----9----7--9--9------------xxx-9----7--9--9----xxx-9--7--9--9--------------|
A|----9----7--7--9------------xxx-9----7--7--9----xxx-9--7--7--9--------------|
E|----7----5-----7------------xxx-7----5-----7----xxx-7--5-----7--------------|

************************************

| /   slide up
| \   slide down
| h   hammer-on
| p   pull-off
| ~   vibrato
| +   harmonic
| x   Mute note
| b   Bend
| pb  Pre-bend
| br  Bend release
| pbr Pre-bend release
| brb Bend release bend

************************************
Добавлено: 03.11.2013
Вам также может быть интересно:
Другие материалы по этой песне:
  • Аккорды и текст

Страница создана 30.07.2012
http://primanota.ru/down-by-law/radio-ragga-chords.htm
Привет, Гость.
Предлагаем пройти революционный курс по гитаре.
Подарок от PrimaNota.Ru, забирай!