PrimaNota.ru - самый крупный в мире бесплатный архив песенных текстов, аккордов, табулатур и нот


Doves - The Ceder Room - таба, видео

Регистрация Запомнить меня
Войти через:  Facebook Google Twitter Vk Yandex Mail.ru

Doves - The Ceder Room - таба, видео

Печатать
Просмотров: 116
          Song:the cedar room
          Band:Doves
          Tabbed by:SLAUGHTER!!!!!!!!! (s_laughter_uk@yahoo.co.uk)
          
          
          Tuning:EADGBE (Detune half a fret to match recording)
          
          
          BPM:79
          
          
          Chords:
          G:320003
          C:x32010
          G/B:x2000x
          D5:xx023x
          
          
          INTRO (after harmonica)
          
          
          Gtr.1 (elec. w/distortion)
          ---------------------------------------------------------
          -0--------------------------mess with volume knob--------
          -0--------------------------or pedal to get crazy--------
          -0--------------------------effect. This carries---------
          ----------------------------on until gtr.2 begins.-------
          --------------------------------------------------------- 
          
          
          Gtr.2 (elec. w/clean tone and reverb)
          -------------------------------------------------
          -13-13-13-13-13-13-13-13-12-12-12-12-15-15-15-15-
          -------------------------------------------------
          -------------------------------------------------
          -------------------------------------------------
          -------------------------------------------------
          
          
          -------------------------------------------------
          -------------------------13-13-13-13-13-13-13-13-
          -12-12-12-12-12-12-12-12-------------------------
          -------------------------------------------------
          -------------------------------------------------
          -------------------------------------------------
          
          
          ---------------------------------------------------
          -12-12-12-12-15-15(17)(15)-------------------------
          ---------------------------12-12-12-12-12-12-12-12-
          ---------------------------------------------------
          ---------------------------------------------------
          ---------------------------------------------------
          
          
          ----------------------------------
          ----------------------------------
          -12-12-12-12-14^12----------------
          -------------------14^12----------
          -------------------------15^12----
          -------------------------------15-
          
          
          VERSE (w/gtr.2 riff except for bends. w/slight variation)
          
          
          Stars leave the morning,
          Sleep clouds my view,
          Don't let them come round here,
          And call for you,
          I didn't notice,
          It's a crime too few,
          I didn't notice,
          It's a crime to feel.
          
          
          CHORUS (gtrs.1+2)
          
          
          C                                 G/B
             An' I try to sleep alone,
               D5               G
          But I couldn't do it.
          
          
          You could be sitting next to me,
                                        C
          And I wouldn't know it,
                                         G/B
          If I told you you was wrong,
                       D5                    G
          I don't remember saying,
          
          
          I don't remember saying,
          I don't remember saying.
          
          
          REPEAT VERSE RIFF ONCE
          
          
          VERSE
          
          
          I'll be your shadow,
          In the cedar room,
          And leave just a memory,
          Alone with you,
          I didn't see that,
          It's a call too soon,
          I couldn't see that,
          It's a call to you.
          
          
          CHORUS 2
          
          
          C                                 G/B
             An' I try to sleep alone,
               D5               G
          But I couldn't do it.
          
          
          You could be sitting next to me,
                                        C
          And I wouldn't know it,
                                         G/B
          If I told you you was wrong,
                       D5                    G
          I don't remember saying,
          
          
          I don't remember saying.
          C                                 G/B
             An' I try to sleep alone,
               D5               G
          But I couldn't do it.
          
          
          You could be sitting next to me,
                                        C
          And I wouldn't know it,
                                         G/B
          If I told you you was wrong,
                       D5                    G
          I don't remember saying,
          
          
          I don't remember saying,
          I don't remember saying.
          
          
          SOLO (gtr.1 plays G and lets ring)
          
          
          ----15---------------------    -------------------
          ----15^17--15----13-13-12--    -------12----12----
          --------------16-14-14-12--    -------12----12-12-
          ---------------------------    -12^14----14-------
          ---------------------------    -------------------
          --------------------------- x3 -------------------
          
          
                                                                         (gtr.1 plays *)
          -15--15--15--15--15--15--15--15\-10--10--10--10--------
          -13--13--12--12--12--12--12--12\--8---8---8---8--------
          -12--12--12--12--12--12--12--12\--7---7---7---7--------
          -------------------------------------------------------
          -------------------------------------------------------
          -------------------------------------------------------
          
          
          *                                        ( use volume knob/pedal)
          -3--------------------------------------
          -0----------------0-1--3----------------
          -0----------------0----0----------------
          -0---------------------0----------------
          -2--------------------------------------
          -3--------------------------------------
          
          
          -------------------------
          -------------------------
          -12-------------12-------
          -12^14-------12^14-12----
          ----------14-------------
          -------------------------
          
          
          ----15---------------------    -----------------------
          ----15^17--15----13-13-12--    -------12--------------
          --------------16-14-14-12--    -------12--------------
          ---------------------------    -12^14----12^14-12-12--
          ---------------------------    -----------------------
          --------------------------- x3 -----------------------
          
          
          -15--15--15--15--15--15--15--15\-10--10--10--10\-3-3-3-3-
          -13--13--12--12--12--12--12--12\--8---8---8---8\-3-3-3-3-
          -12--12--12--12--12--12--12--12\--7---7---7---7\-0-0-0-0-
          ---------------------------------------------------------
          ---------------------------------------------------------
          ---------------------------------------------------------
          
          
          (getting louder)
          -----------------
          -0-0-0-0-0-0-0-0-
          -0-0-0-0-0-0-0-0-
          -0-0-0-0-0-0-0-0-
          -2-2-2-2-2-2-2-2-
          -3-3-3-3-3-3-3-3-
          
          
          REPEAT CHORUS 2
          
          
          SOLO 2
          
          
          (Gtr.1 plays * and G ad lib.)
          -------------------------------------------------
          -12-12-12-13-12-13-12-13-12-12-12-13-12-13-12-13-
          -12-12-12-12-12-12-12-12-12-12-12-12-12-12-12-12-
          -12-12-12-14-12-14-12-14-12-12-12-14-12-14-12-14-
          -------------------------------------------------
          ------------------------------------------------- x8 (ad                                                                            
                                                                                                                 lib)
          
          
          OUTRO
          
          
          Gtr.1 plays G and lets ring until end.
          Gtr.2 plays this
          -----------3-----    --------------------------------
          -------3-------3-    -------1----3-------------0-----
          -0---0-----------    -0---0-----------2--------------
          ---0-----0---0---    ---0----------------------------
          -----------------    --------------------------------
          ----------------- x2 --------------------------------
          
          
          -----0------------0--------------0-------------0---------
          --------3-------3------3-------3-----3-------3-----3-----
          --------0-----0--------------0-------------0-------------
          -----0---------------------------------------------------
          -0^2-----------------------------------------------------
          ---------------------------------------------------------
          
          
          -------------------------------
          --------1-----------0----------
          -----------0-------0-----------
          ------------------0------------
          -----3-----------2-------------
          ----------------3--------------
          
          
          The cedar room,
          The cedar room,
          The cedar room.
          
          
          Please email me at s_laughter_uk@yahoo.co.uk
          Please visit my website at www.homestead.com/slaughtertabs
Добавлено: 14.05.2012
Другие материалы по этой песне:
  • Аккорды и текст

Страница создана 14.05.2012
http://primanota.ru/doves/the-ceder-room-chords.htm
Привет, Гость.
Предлагаем пройти революционный курс по гитаре.
Подарок от PrimaNota.Ru, забирай!