PrimaNota.ru - самый крупный в мире бесплатный архив песенных текстов, аккордов, табулатур и нот


Doves - Northenden - текст песни, таба, видео

Регистрация Запомнить меня
Войти через:  Facebook Google Twitter Vk Yandex Mail.ru

Doves - Northenden - текст песни, таба, видео

Печатать
Просмотров: 146
Авторы: Jimi Goodwin, Andy Williams, Jez Williams

-------------------------------------------------------------------------------
                             NORTHENDEN - Doves
-------------------------------------------------------------------------------
Tabbed by: azumangaoji
Email: kiyone64@yahoo.com

Tuning: Standard-EADGBe Capo 5, all fingerings are relative to capo


Please enjoy this awesome, ambient, atmospheric song!

There are keyboard/guitar/violin noise and effects in the background which I haven't tabbed.
I tabbed the main parts as well as I could.



THE NON LEAD PARTS ARE FINGERPICKED


INTRO/CHORUS 1 (x2 for intro, x2 for chorus)

e|-------------------------------------------------|
B|-------------------------------------------------|
G|-----0-----0-----0-----------0-----0-----0-------|
D|---0-----0-----0-----0-----0-----0-----0---------|
A|-5-----2-----5-----2---5-4-----2-----------------|
E|-------------------------------------5-----2-----|

e|-------------------------------------------------|
B|-------------------------------------------------|
G|-----0-----0-----0-----------0-----0-----0-----0-|
D|---0-----0-----0-----0-----0-----0-----0-----0---|
A|-5-----2-----5-----2---5-4-----2----------/4-----|
E|-------------------------------------5-----------|

Lead during Chorus 1 (the part that sings as doo doo doo, following melody of guitar)

e|-------------------------------------------------|
B|-------------------------------------------------|
G|-7-----4-----7-----4---7-6-----4-----------------|
D|------------------------------------7-----4------|
A|-------------------------------------------------|
E|-------------------------------------------------|

e|-------------------------------------------------|
B|-------------------------------------------------|
G|-7-----4-----7-----4---7-6-----4----------/6-----|
D|------------------------------------7------------|
A|-------------------------------------------------|
E|-------------------------------------------------|




VERSE 1 (x2) --"F**k Longsight and Levenshulme..."

e|-------------------------------------------------|
B|-------------------------------------------------|
G|-----0-----0-----0-----------0-----0-----0-------|
D|---0-----0-----0-----0-----0-----0-----0---------|
A|-5-----2-----5-----2---5-4-----2-----------------|
E|-------------------------------------5-----2-----|

e|-------------------------------------------------|
B|-------------------------------------------------|
G|-----0-----0-----0-----------0-----0-----0-----0-|
D|---0-----0-----0-----0-----0-----0-----0-----0---|
A|-5-----2-----5-----2---5-4-----2----------/4-----|
E|-------------------------------------5-----------|

e|-------------------------------------------------|
B|-------------------------------------------------|
G|-----0-----0-----0-----------0-----0-----0-------|
D|---0-----0-----0-----0-----0-----0-----0---------|
A|-5-----2-----5-----2---5-4-----2-----------------|
E|-------------------------------------5-----2-----|

e|-------------------------------------------------|
B|-------------------------------------------------|
G|-----0-----0-----0-----------0-----0-----0-----0-|
D|---0-----0-----0-----0-----0-----0-----0-----0---|
A|-5-----2-----5-----2---5-7-----4-----2-----------|
E|-------------------------------------------5-----|




PRECHORUS (x2)

e|-------------------------------------------------|
B|-----0-----0-----0-----0-----0-----0-----0-----0-|
G|---1-----1-----1-----1-----0-----0-----0-----0---|
D|-6-----6-----6-----6-----5-----5-----5-----5-----|
A|-------------------------------------------------|
E|-------------------------------------------------|

Lead during Prechorus (x2)

e|-------------------------------------------------|
B|-------------------------------------------------|
G|-1---4-----------------1-0---------4-6b------4---|
D|-------------------------------------------------|
A|-------------------------------------------------|
E|-------------------------------------------------|


CHORUS 2 (x2)  --"doo doo doo doo"

e|-------------------------------------------------|
B|-------------------------------------------------|
G|-----0-----0-----0-----------0-----0-----0-------|
D|---0-----0-----0-----0-----0-----0-----0---------|
A|-5-----2-----5-----2---5-4-----2-----------------|
E|-------------------------------------5-----2-----|

e|-------------------------------------------------|
B|-------------------------------------------------|
G|-----0-----0-----0-----------0-----0-----0-----0-|
D|---0-----0-----0-----0-----0-----0-----0-----0---|
A|-5-----2-----5-----2---5-4-----2----------/4-----|
E|-------------------------------------5-----------|

e|-------------------------------------------------|
B|-------------------------------------------------|
G|-----0-----0-----0-----------0-----0-----0-------|
D|---0-----0-----0-----0-----0-----0-----0---------|
A|-5-----2-----5-----2---5-4-----2-----------------|
E|-------------------------------------5-----2-----|

e|-------------------------------------------------|
B|-------------------------------------------------|
G|-----0-----0-----0-----------0-----0-----0-----0-|
D|---0-----0-----0-----0-----0-----0-----0-----0---|
A|-5-----2-----5-----2---5-7-----4-----2-----------|
E|-------------------------------------------5-----|

Lead during Chorus 2

e|-------------------------------------------------|
B|-------------------------------------------------|
G|-7-----4-----7-----4---7-6-----4-----------------|
D|-------------------------------------7-----4-----|
A|-------------------------------------------------|
E|-------------------------------------------------|

e|-------------------------------------------------|
B|-------------------------------------------------|
G|-7-----4-----7-----4---7-6-----4----------/6-----|
D|-------------------------------------7-----------|
A|-------------------------------------------------|
E|-------------------------------------------------|

e|-------------------------------------------------|
B|-------------------------------------------------|
G|-7-----4-----7-----4---7-6-----4-----------------|
D|-------------------------------------7-----4-----|
A|-------------------------------------------------|
E|-------------------------------------------------|

e|-------------------------------------------------|
B|-------------------------------------------------|
G|-7-----4-----7-----4---7-9----11-----9-----7p6---|
D|-------------------------------------------------|
A|-------------------------------------------------|
E|-------------------------------------------------|



VERSE 2 (x2) --"The kids are deranged.."

e|-------------------------------------------------|
B|-------------------------------------------------|
G|-----0-----0-----0-----------0-----0-----0-------|
D|---0-----0-----0-----0-----0-----0-----0---------|
A|-5-----2-----5-----2---5-4-----2-----------------|
E|-------------------------------------5-----2-----|

e|-------------------------------------------------|
B|-------------------------------------------------|
G|-----0-----0-----0-----------0-----0-----0-----0-|
D|---0-----0-----0-----0-----0-----0-----0-----0---|
A|-5-----2-----5-----2---5-4-----2----------/4-----|
E|-------------------------------------5-----------|

e|-------------------------------------------------|
B|-------------------------------------------------|
G|-----0-----0-----0-----------0-----0-----0-------|
D|---0-----0-----0-----0-----0-----0-----0---------|
A|-5-----2-----5-----2---5-4-----2-----------------|
E|-------------------------------------5-----2-----|

e|-------------------------------------------------|
B|-----------------------------0-----0-----0-------|
G|-----0-----0-----0---------0-----0-----0-------0-|
D|---0-----0-----0-----0---4-----2-------------0---|
A|-5-----2-----5-----2---5-------------5-----4-----|
E|-------------------------------------------------|

second time around last phrase is:

e|-------------------------------------------------|
B|-------------------------------------------------|
G|-----0-----0-----0-----------0-----0-----0-----0-|
D|---0-----0-----0-----0-----0-----0-----0-----0---|
A|-5-----2-----5-----2---5-7-----4-----2-----------|
E|-------------------------------------------5-----|

Lead during first part of Verse 2 (x4, although I think they use a delay pedal)

e|-------------------------------------------------|
B|-10\---------10\---------10\---------10\---------|
G|-------------------------------------------------|
D|-------------------------------------------------|
A|-------------------------------------------------|
E|-------------------------------------------------|



PRECHORUS 2

e|-------------------------------------------------|
B|-----0-----0-----0-----0-----0-----0-----0-----0-|
G|---1-----1-----1-----1-----0-----0-----0-----0---|
D|-6-----6-----6-----6-----5-----5-----5-----5-----|
A|-------------------------------------------------|
E|-------------------------------------------------|

e|-------------------------------------------------|
B|-----0-----0-----0-----0-----0-----0-----0-----0-|
G|---1-----1-----1-----1-----0-----0-----0-----0---|
D|-6-----6-----6-----6-----5-----5-----5-----5-----|
A|-------------------------------------------------|
E|-------------------------------------------------|

e|-------------------------0-----------------------|
B|-----0-----0-----0-----0-0-----------------------|
G|---1-----1-----1-----1---0-----------------------|
D|-6-----6-----6-----6-----2-----------------------|
A|-------------------------2-----------------------|
E|-------------------------0-----------------------|

Lead during Prechorus 2

e|-------------------------------------------------|
B|-------------------------------------------------|
G|-1---4-----------------------------4-6b------4---|
D|-------------------------------------------------|
A|-------------------------------------------------|
E|-------------------------------------------------|

e|-------------------------------------------------|
B|-------------------------------------------------|
G|-1---4-----------------------------4-6b------4---|
D|-------------------------------------------------|
A|-------------------------------------------------|
E|-------------------------------------------------|


e|-------------------------------------------------|
B|-------------------------------------------------|
G|-1---4-----------------1-0-----------------------|
D|-------------------------------------------------|
A|-------------------------------------------------|
E|-------------------------------------------------|



PRE-BRIDGE (fade-in)

e|-------------------------------------------------|
B|-------------------------------------------------|
G|-----0-----0-----0-----------0-----0-----0-------|
D|---0-----0-----0-----0-----0-----0-----0---------|
A|-5-----2-----5-----2---5-4-----2-----------------|
E|-------------------------------------5-----2-----|

e|-------------------------------------------------|
B|-------------------------------------------------|
G|-----0-----0-----0-----------0-----0-----0-----0-|
D|---0-----0-----0-----0-----0-----0-----0-----0---|
A|-5-----2-----5-----2---5-4-----2----------/4-----|
E|-------------------------------------5-----------|

e|-------------------------------------------------|
B|-------------------------------------------------|
G|-----0-----0-----0-----------0-----0-----0-------|
D|---0-----0-----0-----0-----0-----0-----0---------|
A|-5-----2-----5-----2---5-4-----2-----------------|
E|-------------------------------------5-----2-----|

e|-------------------------------------------------|
B|-------------------------------------------------|
G|-----0-----0-----0-----------0-----0-----0-----0-|
D|---0-----0-----0-----0-----0-----0-----0-----0---|
A|-5-----2-----5-----2---5-7-----4-----2-----------|
E|-------------------------------------------5-----|

Lead during pre-bridge (it starts off the bridge actually)

e|-------------------------------------------------|
B|-------------------------------------------------|
G|-7-----4-----7-----4---7-6-----4-----------------|
D|-------------------------------------7-----4-----|
A|-------------------------------------------------|
E|-------------------------------------------------|

e|-------------------------------------------------|
B|-------------------------------------------------|
G|-7-----4-----7-----4---7-6-----4----------/6-----|
D|-------------------------------------7-----------|
A|-------------------------------------------------|
E|-------------------------------------------------|

e|-------------------------------------------------|
B|-------------------------------------------------|
G|-7-----4-----7-----4---7-6-----4-----------------|
D|-------------------------------------7-----4-----|
A|-------------------------------------------------|
E|-------------------------------------------------|

e|-------------------------------------------------|
B|-------------------------------------------------|
G|-7-----4-----7-----4---7-9-----6-----------------|
D|-------------------------------------9-----7-----|
A|-------------------------------------------------|
E|-------------------------------------------------|


BRIDGE --"Northenden... Afternoon..."

e|-------------------------------------------------|
B|-------------------------------------------------|
G|-----0-----0-----0-----------0-----0-----0-------|
D|---0-----0-----0-----0-----0-----0-----0---------|
A|-5-----2-----5-----2---5-4-----2-----------------|
E|-------------------------------------5-----2-----|

e|-------------------------------------------------|
B|-------------------------------------------------|
G|-----0-----0-----0-----------0-----0-----0-----0-|
D|---0-----0-----0-----0-----0-----0-----0-----0---|
A|-5-----2-----5-----2---5-4-----2----------/4-----|
E|-------------------------------------5-----------|

e|-------------------------------------------------|
B|-------------------------------------------------|
G|-----0-----0-----0-----------0-----0-----0-------|
D|---0-----0-----0-----0-----0-----0-----0---------|
A|-5-----2-----5-----2---5-4-----2-----------------|
E|-------------------------------------5-----2-----|

e|-----------------------------0-----0-----0-------|
B|-------------------------------------------------|
G|-----0-----0-----0---------0-----0-----0-------0-|
D|---0-----0-----0-----0---4-----2-------------0---|
A|-5-----2-----5-----2---5-------------5-----4-----|
E|-------------------------------------------------|

Lead during Bridge

e|-------------------------------------------------|
B|-------------------------------------------------|
G|-7-----4-----7-----4---7-6-----4-----------------|
D|-------------------------------------7-----4-----|
A|-------------------------------------------------|
E|-------------------------------------------------|

e|-------------------------------------------------|
B|-------------------------------------------------|
G|-7-----4-----7-----4---7-6-----4----------/6-----|
D|-------------------------------------7-----------|
A|-------------------------------------------------|
E|-------------------------------------------------|

e|-------------------------------------------------|
B|-------------------------------------------------|
G|-7-----4-----7-----4---7-6-----4-----------------|
D|-------------------------------------7-----4-----|
A|-------------------------------------------------|
E|-------------------------------------------------|

e|-------------------------------------------------|
B|-------------------------------------------------|
G|-7-----4-----7-----4---7-6-----4-----------------|
D|-------------------------------------7-----5-----|
A|-------------------------------------------------|
E|-------------------------------------------------|




OUTRO --"doo doo doo doo"

e|-------------------------------------------------|
B|-------------------------------------------------|
G|-----0-----0-----0-----------0-----0-----0-------|
D|---0-----0-----0-----0-----0-----0-----0---------|
A|-5-----2-----5-----2---5-4-----2-----------------|
E|-------------------------------------5-----2-----|

e|-------------------------------------------------|
B|-------------------------------------------------|
G|-----0-----0-----0-----------0-----0-----0-----0-|
D|---0-----0-----0-----0-----0-----0-----0-----0---|
A|-5-----2-----5-----2---5-4-----2----------/4-----|
E|-------------------------------------5-----------|

e|-------------------------------------------------|
B|-------------------------------------------------|
G|-----0-----0-----0-----------0-----0-----0-------|
D|---0-----0-----0-----0-----0-----0-----0---------|
A|-5-----2-----5-----2---5-4-----2-----------------|
E|-------------------------------------5-----2-----|

e|-------------------------------------------------|
B|-----------------------------0-----0-----0-------|
G|-----0-----0-----0---------0-----0-----0-------0-|
D|---0-----0-----0-----0---4-----2-------------0---|
A|-5-----2-----5-----2---5-------------5-----4-----|
E|-------------------------------------------------|

--repeat last phrase as necessary and diminuendo--

Lead during Outro

e|-------------------------------------------------|
B|-------------------------------------------------|
G|-7-----4-----7-----4---7-6-----4-----------------|
D|-------------------------------------7-----4-----|
A|-------------------------------------------------|
E|-------------------------------------------------|

e|-------------------------------------------------|
B|-------------------------------------------------|
G|-7-----4-----7-----4---7-6-----4----------/6-----|
D|-------------------------------------7-----------|
A|-------------------------------------------------|
E|-------------------------------------------------|

e|-------------------------------------------------|
B|-------------------------------------------------|
G|-7-----4-----7-----4---7-9----11-----9-----6-----|
D|-------------------------------------------------|
A|-------------------------------------------------|
E|-------------------------------------------------|

e|-------------------------------------------------|
B|-------------------------------------------------|
G|-7-----4-----7-----4---7-6-----4-----------------|
D|-------------------------------------7-----5-----|
A|-------------------------------------------------|
E|-------------------------------------------------|



Comments, suggestions, questions?  Email me!


| /  slide up
| \  slide down
| h  hammer-on
| p  pull-off
| ~  vibrato
| +  harmonic
| x  Mute note
| b  bend
===============================================================================
Добавлено: 01.03.2012
Другие материалы по этой песне:

Страница создана 01.03.2012
http://primanota.ru/doves/northenden-chords.htm
Привет, Гость.
Предлагаем пройти революционный курс по гитаре.
Подарок от PrimaNota.Ru, забирай!