PrimaNota.ru - самый крупный в мире бесплатный архив песенных текстов, аккордов, табулатур и нот


Doves - Compulsion - текст песни, бас-таба, видео

Регистрация Запомнить меня
Войти через:  Facebook Google Twitter Vk Yandex Mail.ru

Doves - Compulsion - текст песни, бас-таба, видео

Печатать
Просмотров: 140
Авторы: Jimi Goodwin, Andy Williams, Jez Williams

0.10 - 0.28
(x2)
G|---------------------------------------------|
D|---------------------------------------------|
A|-----333------33-------------3------33-------|
E|-555-----5--5----5-555-3---5---5--5----5-3-5-|

0.28 - 0.37
G|---7-----5---------------------------3-0-2----------------|
D|------------------33--------------------------------------|
A|-5----3-----5---5----5--55-3------------------33----------|
E|-----------------------------5--3-5---------3----5--5-3-5-|

0.37 - 0.46
G|---9---7-------------------------------------|
D|----------------55-----------------33333-555-|
A|-7---5---7---77----7-77\6---5-3-5------------|
E|---------------------------------------------|

0.46 - 0.55
G|--------------------------3-0-2----------------|
D|-----------------------------------------------|
A|---3-------33--------3-------------33----------|
E|-5---5---5----5--3-5---5---------5----5--5-3-5-|

0-55 - 1.11
G|------------------------------------------------7----5-------------------------3-0-2--|
D|-------------------------------------------------------------33-----------------------|
A|---3------33--------------3------33-----------5----3-----3h5-----5-55-3----3----------|
E|-5---5--5----5--5-3-5---5---5--5----5--5-3-5-----------------------------5---5--------|

1.11 - 1.23
G|------------------9-----7------------------------------------------|
D|---------------------------------55------------33--------33333-555-|
A|---33-----------7----5-----7---7----7--77-6--5----5--5/7-----------|
E|-5----5--5-3-5-----------------------------------------------------|

1. 23 - 1.32
G|---------------------5-0-2----------------|
D|------------------------------------------|
A|---3-----33------3------------33----------|
E|-5---5------5--5---5--------5----5--5-3-5-|

1.32 - 1.59
G|------------------------------------------------7----5-------------------------5\2-|
D|-----------------------------------------------------------33----------------------|
A|---3------33--------------3------33-----------5----3-----5-----5-55-3----3---------|
E|-5---5--5----5--5-3-5---5---5--5----5--5-3-5---------------------------5---5-------|

G|------------------9-----7-----------------------------------------|
D|---------------------------------55---------------------33333-555-|
A|---33-----------7----5-----7---7----7--77-6--5-3-5--5/7-----------|
E|-5----5--5-3-5----------------------------------------------------|

1.59 - 2.04
G|------------------------|
D|------------------------|
A|---3--------33--------2-|
E|-5---5--5-5----5--5-3---|

2.04
G|-5--------4------3---------------------------|
D|---5--------4------3-------------------------|
A|-----3--------2------1----3------33----------|
E|------------------------5---5--5----5--5-3-5-|

2. 13
G|-5--------4------3---2/3\2--------------------------|
D|---5--------4------3--------------------------------|
A|-----3--------2------------------3------33----------|
E|-------------------------------5---5--5----5--5-3-5-|

2.22 - 2.31
G|--------------------------------------|
D|--------------------------------------|
A|---3-----33--------3------33----------|
E|-5---5------5--3-5---5--5----5--5-3-5-|

2.31 - 2.59
G|------------------------------------------------7----5-------------------------5\2-|
D|-----------------------------------------------------------33----------------------|
A|---3------33--------------3------33-----------5----3-----5-----5-55-3----3---------|
E|-5---5--5----5--5-3-5---5---5--5----5--5-3-5---------------------------5---5-------|

G|------------------9-----7---------------------------------------|
D|---------------------------------55--------------3----33333-555-|
A|---33-----------7----5-----7---7----7--77-6--55----5------------|
E|-5----5--5-3-5--------------------------------------------------|

2.59 - 3.03
G|---------------------------------|
D|------------7777-7p5-7p5-7p5-7p5-|
A|---3-----------------------------|
E|-5---5--3/5----------------------|

3.03 - 3.20
G|-5--------4------3---2h3p2--------------------------|
D|---5--------4------3--------------------------------|
A|-----3--------2------------------3------33----------|
E|-------------------------------5---5--5----5--5-3-5-|

G|-7--------7---5-------------------------------------|
D|---7----7-------5---------7-------------------------|
A|-----5------------3--------------3------33----------|
E|----------------------3-5------5---5--5----5--5-3-5-|

3.20 - 3.40
G|------------------------------------------------------------------|
D|------------------------------------------------------------------|
A|-8/10/12---------5/7/8----------8/10/12-------------55-3-2--0---0-|
E|----------8-8-8---------5-3-5------------8-8\10\12------------3---|

G|-----------------------------------------------------------------|
D|-----------------------------------------------------------------|
A|-8/10/12-------------55-3-0--0---0---8/10/12----------------7777-|
E|----------8-8\10\12------------3--------------8-8-7---4444-------|

Rests then enters at 3.49

3.49 - 4.21
G|-------------------------------------------------7-----5-------------------|
D|----------------------------------------------------------------33---------|
A|-33333----3------33--------3------33-----------5----3-----5---5----5--55-3-|
E|--------5---5--5----5-3--5---5--5----5--5-3-5------------------------------|

G|-----------------------99-77-9-\/999999-999---77-55-7-------------------------------|
D|-------------------------------------------------------33333-555-----------775-75---|
A|---3------33--------------------------------------------------------3---3---------5-|
E|-5---5--5----5--5-3-5---------------------------------------------5---5-------------|


4.21 - 4.53
G|-5--------5--4-------3-----------------------------|
D|---5----5------4-------3---------------------------|
A|-----3------------2------1------3------33----------|
E|------------------------------5---5--5----5--5-3-5-|

     (x2)                         (play this at end of 2nd time)
G|-5--------5--4------3------------|-22222-|
D|---5----5------4------3----------|-------|
A|-----3-----------2------1----3---|-------|
E|---------------------------5---5-|-------|

G|-5--------5--4-------3------------------------------|
D|---5----5------4-------3----------------------------|
A|-----3------------2------1------3-------33----------|
E|------------------------------5---5--55----5--5-3-5-|

4.53 - 5.02
G|--------------------------------|
D|--------------------------------|
A|---3------33--------3------33---|
E|-5---5--5----5-3--5---5--5----5-|
Добавлено: 13.04.2012
Другие материалы по этой песне:
  • Аккорды и текст

Страница создана 13.04.2012
http://primanota.ru/doves/compulsion-chords.htm
Привет, Гость.
Предлагаем пройти революционный курс по гитаре.
Подарок от PrimaNota.Ru, забирай!