PrimaNota.ru - самый крупный в мире бесплатный архив песенных текстов, аккордов, табулатур и нот


Doves - 1003 - текст песни, бас-таба, видео

Регистрация Запомнить меня
Войти через:  Facebook Google Twitter Vk Yandex Mail.ru

Doves - 1003 - текст песни, бас-таба, видео

Печатать
Просмотров: 139
Уроки эстрадного вокала в Санкт-Петербурге
Авторы: Jimi Goodwin, Andy Williams, Jez Williams

Intro
G|------------------------------------------8---------------------------------------|
D|----------------------------------------8---8---------10----10--------------------|
A|-6-/-10--10-------------11--11-10-8--6---------10-10-----10-----------11--11-10-8-|
E|------------8--8-10-11------------------------------------------10-11-------------|

Verse 1
               x2                              x2
G|----------------------------|-------8---------------------------------|
D|----------------------------|-----8---8-------------------------------|
A|-6~-/-10~--10-------11-10-8-|-6~---------10~--------------11--11-10-8-|
E|--------------8~--8---------|------------------8--8-10-11-------------|

Verse 2 1.26
G|----------------------------------------------------------------------|
D|----------------------------------------------------------------------|
A|-6-66-6-6666---10-1010-10-10101010---------------------11-1111-11(x5)-|
E|-------------------------------------8-88-8-88/10/11------------------|

G|------------------------------------------------------------------|
D|-----------------------8/10--10(x5)----10-------------------------|
A|-6666666---66-/10(x11)--------------10----10--------11(x6)/13(x6)-|
E|---------6------------------------------------10-11---------------|

G|-------------------------------------------|
D|-------------------------------------------|
A|-6(x12)---10(x12)------------------11(x12)-|
E|------------------8(x8)-8h10-10h11---------|

Build Up 1.57
G|-------------------------------------------------------|
D|-------------------------------------------------------|
A|-9-9-9-9-9-9---8-8-8-8-8-8---6-6-6-6-6-6---6-6-6-6-6-6-|
E|-----------------------------------------6-------------|

G|-----------------------------------------------------------|
D|-----------------------------------------------------------|
A|-9-9-9-9-9-9---8-8-8-8-8-8---6-6-6---6-6-6---6-6-6-6---6-6-|
E|-----------------------------------6-------6---------6-----|

G|-------------------------------------|
D|-------------------------------------|
A|-9-9-9-9-9-9---8-8-8-8-8-8---11(x18)-|
E|-------------------------------------|

Bass rests until 2.40
                          (x6)
G|--------------------|---------|
D|----11\\\\\---------|---------|
A|-6/-----------------|-6666-66-|
E|--------------------|---------|

2.52
G|------------------------------------------------------------------------------|
D|---------------------------------11\\\----------------------------------------|
A|-6-6-66-6-666-666---6-6-66-6-666---------9-9-99-9-999-999---8-8-88-8-888-888--|
E|------------------------------------------------------------------------------|

3.06
G|------------------------------------------------------------------------------------|
D|------------------------------------------------------------------------------------|
A|-6-6-66-6-666-666---6-6-66-6-666-666-/-9-9-99-9-999/11-11\9---8-8-88-8-888-9-11-9-8-|
E|------------------------------------------------------------------------------------|

3.21
G|--------------------------------------------------------------------------------------|
D|--------------------------------------------------------------------------------------|
A|-6-6-66-6-6-----4-----6-6-66-6-6------11-11-11---9-9-99-9-999/13-13-13---8-8-88-8-888-|
E|------------4-6---6--------------4-6//------------------------------------------------|

(11s not 1s)
G|--------------------------------------------------------------------|
D|--------------------------------------------------------------------|
A|-8/9/10/11---11-11-1111-11-111111-111111\6/--11-11-1111-11\10\8\7\6-|
E|--------------------------------------------------------------------|

3.53
G|-----------|
D|-----------|
A|-6~-/10~---|
E|-----------|
Добавлено: 20.05.2012
Другие материалы по этой песне:
  • Аккорды и текст

Страница создана 20.05.2012
http://primanota.ru/doves/1003-chords.htm
Привет, Гость.
Предлагаем пройти революционный курс по гитаре.
Подарок от PrimaNota.Ru, забирай!