PrimaNota.ru - самый крупный в мире бесплатный архив песенных текстов, аккордов, табулатур и нот


Dover - My Secret People - текст песни, таба, видео

Регистрация Запомнить меня
Войти через:  Facebook Google Twitter Vk Yandex Mail.ru

Dover - My Secret People - текст песни, таба, видео

Печатать
Просмотров: 181
Авторы: Cristina Llanos, Amparo Llanos

Dover
my secret people
taken from the album:
"I was dead for 7 weeks in the city of Angels" 

By: jh jr.


This is a great song of Dover, it took me some time to figure it out. It's a little bit
tricky cause the 2nd guitar is tuned Drop-D and the 1st one is tuned normal, but they play
the same chords almost all time (except for 1st guitar is doing some solo stuff).

P.s. maybe i've counted one or two chords too much or too less sometime, so don't give too
much on the number, but the chords themselves are absolutely right.




Intro:

Riff A1

  1st guitar (Normal tuning) (distortion)
e|---------------------------------------------------------------------------|
B|---------------------------------------------------------------------------|
G|------------------6-8-8b(10)r8-----------------10-13-13b(15)r13------------|
D|---------------------------------------------------------------------------|
A|---------------------------------------------------------------------------|
E|---------------------------------------------------------------------------|

played 2 times

  2nd guitar (Drop D) (distortion w/ a flanger)
e|---------------------------------------------------------------------------|
B|---------------------------------------------------------------------------|
G|---------------------------------------------------------------------------|
D|---8--8--8-8-6-8---------------8--8--8-8-6-8-------------------------------|
A|---8--8--8-8-6-8---------------8--8--8-8-6-8-------------------------------|
E|---8--8--8-8-6-8---------------8--8--8-8-6-8-------------------------------|

played twice, 2nd time let last note ring without flanger


Riff A2

  2nd guitar (distortion)
e|---------------------------------------------------------------------------|
B|---------------------------------------------------------------------------|
G|---------------------------------------------------------------------------|
D|---8--8--8-8-6-8--8-8-11-11-11-11---8--8--8-8-6-8--8-8-4-4-4-4-------------|
A|---8--8--8-8-6-8--8-8-11-11-11-11---8--8--8-8-6-8--8-8-4-4-4-4-------------|
E|---8--8--8-8-6-8--8-8-11-11-11-11---8--8--8-8-6-8--8-8-4-4-4-4-------------|

1st guitar plays riff the same as in riff A1

played twice


Verse:

2x Riff B

  2nd guitar (palm muted)
e|--------------------------------------------------------------------------------------|
B|--------------------------------------------------------------------------------------|
G|--------------------------6-6-6-6-10-10-10-10-8-8-8-8-8-8-8-11-11-11-11-6-6-6-6-6-6---|
D|--8-8-8-8-8-8-8-8-4-4-4-4-6-6-6-6-10-10-10-10-8-8-8-8-8-8-8-11-11-11-11-6-6-6-6-6-6---|
A|--8-8-8-8-8-8-8-8-4-4-4-4-4-4-4-4--8--8--8--8-6-6-6-6-6-6-6--9--9--9--9-4-4-4-4-4-4---|
E|--8-8-8-8-8-8-8-8-4-4-4-4-------------------------------------------------------------|

played twice

then:
  1st guitar
e|---------------------------------------------------------------------------------------|
B|---------------------------------------------------------------------------------------|
G|-6-6-6-6-8-8b(10)r8--6-6-6-6-8-8b(10)r8--10-10-10-10-13-13b(15)r13--6-6-6-6-8-8b(10)r6-|
D|---------------------------------------------------------------------------------------|
A|---------------------------------------------------------------------------------------|
E|---------------------------------------------------------------------------------------|

played twice
2nd guitar plays 2 times riff B (without p.m.)


Pre-chorus (not really sure about that):

  1st guitar (clean)
e|---------------------------------------------------------------------------|
B|---------------------------------------------------------------------------|
G|--10-10-10-10--6-6-6-6--8-8-8-8--11-11-11-11-------------------------------|
D|--10-10-10-10--6-6-6-6--8-8-8-8--11-11-11-11-------------------------------|
A|---8--8--8--8--4-4-4-4--6-6-6-6---9--9--9--9-------------------------------|
E|---------------------------------------------------------------------------|

accent D & G strings, A string is almost inaudible

then:
  2nd guitar (distorted, very fast)
e|---------------------------------------------------------------------------|
B|---------------------------------------------------------------------------|
G|---------------------------------------------------------------------------|
D|--11-11-11-11-11-11-11-11-6-6-6-6-6-6-6-6-8-8-8-8-8-8-8-8-3-3-3-3-3-3-3-3--|
A|--11-11-11-11-11-11-11-11-6-6-6-6-6-6-6-6-8-8-8-8-8-8-8-8-3-3-3-3-3-3-3-3--|
E|--11-11-11-11-11-11-11-11-6-6-6-6-6-6-6-6-8-8-8-8-8-8-8-8-3-3-3-3-3-3-3-3--|


Chorus:

  2nd guitar
e|---------------------------------------------------------------------------|
B|---------------------------------------------------------------------------|
G|---------------------------------------------------------------------------|
D|--8--8--8-8-8---4--4-4--4-4-4---11--11--11-11-11---6--6-6--6-6-6-----------|
A|--8--8--8-8-8---4--4-4--4-4-4---11--11--11-11-11---6--6-6--6-6-6-----------|
E|--8--8--8-8-8---4--4-4--4-4-4---11--11--11-11-11---6--6-6--6-6-6-----------|

  1st guitar plays full chords (A# F# C# G#)



Interlude:

2x riff A2


Verse:

1x riff B


Pre-chorus



Chorus


Bridge:

Riff C1
  2nd guitar
e|---------------------------------------------------------------------------|
B|---------------------------------------------------------------------------|
G|---------------------------------------------------------------------------|
D|--3-3-3-3-3-3-3-3-8-x-8-x-8--6-6-6-6-6-6-6-6--11-x-11-x-11-----------------|
A|--3-3-3-3-3-3-3-3-8-x-8-x-8--6-6-6-6-6-6-6-6--11-x-11-x-11-----------------|
E|--3-3-3-3-3-3-3-3-8-x-8-x-8--6-6-6-6-6-6-6-6--11-x-11-x-11-----------------|
    (.........p.m.) (clean..)  (.........p.m.)  (clean.....) 

1st guitar plays the same, but keeps strummin fast and palm muted all the time


Riff C2
  2nd guitar (1st guitar silent)
e|---------------------------------------------------------------------------|
B|---------------------------------------------------------------------------|
G|---------------------------------------------------------------------------|
D|---1-x-1-x-1-8--8-8-8-8-8-8--1-x-1-x-1--4--4-4-4-4-4-4---------------------|
A|---1-x-1-x-1-8--8-8-8-8-8-8--1-x-1-x-1--4--4-4-4-4-4-4---------------------|
E|---1-x-1-x-1-8--8-8-8-8-8-8--1-x-1-x-1--4--4-4-4-4-4-4---------------------|

e|---------------------------------------------------------------------------|
B|---------------------------------------------------------------------------|
G|---------------------------------------------------------------------------|
D|---11-11-11-11-11-11-11-11--6-6-6-6-6-6-6-6--------------------------------|
A|---11-11-11-11-11-11-11-11--6-6-6-6-6-6-6-6--------------------------------|
E|---11-11-11-11-11-11-11-11--6-6-6-6-6-6-6-6--------------------------------|


then Riff A1 and A2


Solo:

  2nd guitar
e|---------------------------------------------------------------------------|
B|---------------------------------------------------------------------------|
G|----------------------------------8-8-8-8-8-8-8-8-11-11-11-11--6-6-6-6-----|
D|--8-8-8-8-8-8-8-8-8-8-8-8-8-8-8-8-8-8-8-8-8-8-8-8-11-11-11-11--6-6-6-6-----|
A|--8-8-8-8-8-8-8-8-8-8-8-8-8-8-8-8-6-6-6-6-6-6-6-6--9--9--9--9--4-4-4-4-----|
E|--8-8-8-8-8-8-8-8-8-8-8-8-8-8-8-8------------------------------------------|

played twice

e|---------------------------------------------------------------------------|
B|---------------------------------------------------------------------------|
G|--11-11-11-11--6-6-6-6--8-8-8-8--------------------------------------------|
D|--11-11-11-11--6-6-6-6--8-8-8-8--8-8-8-8-----------------------------------|
A|---9--9--9--9--4-4-4-4--6-6-6-6--8-8-8-8-----------------------------------|
E|---------------------------------8-8-8-8-----------------------------------|

played 4 times

  1st guitar
e|---------------------------------------------------------------------------|
B|---------------------------------------------------------------------------|
G|---8b(10)r8---8-6-8-6--------6-8---8-6-8-6---------------------------------|
D|----------------------8-8--8---------------8-6-----------------------------|
A|---------------------------------------------------------------------------|
E|---------------------------------------------------------------------------|

played twice

e|------|-----------------------------------------------------------------------------------|
B|------|-----------------------------------------------------------------------------------|
G|------|-----------------------------------------------------------------------------------|
D|---10h|13b(15)r13b(15)r13-13-10-10\8-10-8\6----10-13b(15)r13b(15)r13-13-10-13b(15)r13b(15)|
A|------|-------------------------------------8---------------------------------------------|
E|------|-----------------------------------------------------------------------------------|

         played twice


Pre-Chorus


Chorus


Ending:

play riff A2 once. End with some A# power chords.


So that's it. hope you like it...
Добавлено: 27.03.2012
Другие материалы по этой песне:

Страница создана 27.03.2012
http://primanota.ru/dover/my-secret-people-chords.htm
Привет, Гость.
Предлагаем пройти революционный курс по гитаре.
Подарок от PrimaNota.Ru, забирай!