PrimaNota.ru - самый крупный в мире бесплатный архив песенных текстов, аккордов, табулатур и нот


Dover - Love Is A Bitch - аккорды и текст, таба, видео

Регистрация Запомнить меня
Войти через:  Facebook Google Twitter Vk Yandex Mail.ru

Dover - Love Is A Bitch - аккорды и текст, таба, видео

Печатать
Просмотров: 250
Love Is A Bitch
Dover
Dover

Love is a bitch

by Iker Romero

 

/ = slide

b = bend 

rb= release bend

h=hamer on

 >=pinch harmonic

 

 intro

e---------------------------------|

B---------------------------------|

G---------------------------------|

D---------------------------------| Overdrive or something like that

A-4-4-4-4-4-4-4-4-4-4-4-4-4-4-4-4-|

E---------------------------------|

 

 3ªy4ª vez

e--------|-------------------------------|

B--------|-------------------------------|

G------4/|6---6-----------8-8-8----------|

D------4/|6-6-6--6-12-4---8-8-8----------| x4

A------2/|4-6-4--6-12-4---6-6-6-8-8-8-8--|

E--------|--4----4/10\2---------6-6-6-6--|

 

 bridge

   ...but it's all right!

e----------------------------|

B----------------------------|

G---------------6-6-6-6-6-6--|

D--4-4-4-4-4-4--6-6-6-6-6-6--| x2

A--4-4-4-4-4-4--4-4-4-4-4-4--|

E--2-2-2-2-2-2---------------|

 

 it's all money...

 [intro x4]

 

 they just took my money..

 ...but it's all right!

e----------------------------|

B----------------------------|

G---------------6-6-6-6-6-6--|

D--4-4-4-4-4-4--6-6-6-6-6-6--| x2

A--4-4-4-4-4-4--4-4-4-4-4-4--|

E--2-2-2-2-2-2---------------|

 

 riff. 1

 ...lets keep some distance

e--------------------------------------------------------------|

B--------------------------------------------------------------|

G-6-6-6-6------------------6-6-6-6--6-6-6-----------------6----|

D-6-6-6-6--6-6-6-6--4-4-4--6-6-6-6--6-6-6--6--6/8--4-4-4--6----|

A-4-4-4-4--6-6-6-6--4-4-4--4-4-4-4--4-4-4--6--6/8--4-4-4--4----|

E----------4-4-4-4--2-2-2------------------4--4/6--2-2-2-------|

 P.M..............

 

...love is a bitch!!

e----------------------------------------------------|

B----------------------------------------------------|

G-------6-6-6--------------------6-6-6---------------|

D--4-4--6-6-6--6-6-6-8-8-8--4-4--6-6-6--6-6-6-3-3-3--|

A--4-4--4-4-4--6-6-6-8-8-8--4-4--4-4-4--6-6-6-3-3-3--|

E--2-2---------4-4-4-6-6-6--2-2---------4-4-4-1-1-1--|

 

e-------------------------------------------------------|

B-------------------------------------------------------|

G-------6-6-6-------------------------------6-6-6-6-6-6-|

D--4-4--6-6-6--6-6-6-8-8-8--4-4-4-4-6-6-6-6-6-6-6-6-6-6-|

A--4-4--4-4-4--6-6-6-8-8-8--4-4-4-4-6-6-6-6-4-4-4-4-4-4-|

E--2-2---------4-4-4-6-6-6--2-2-2-2-4-4-4-4-------------|

                            P.M........................

 

 

 solo (parte 1)

   Solo 1ª vez          

e----------------------|-------------------------------|

B----------------------|-------------------------------|

G-8b-8-6-8--6-8b-8-6---|--6-8- 8>brb8brb-6-8-6-8b-8-6--| x4  

D--------------------8-|8----------------------------8-|

A----------------------|-------------------------------|

E----------------------|-------------------------------|

 

 solo (parte 2)        

e--------------------------------|  -----------------------|

B--------------------------------|  -----------------------|

G---6-6h8-8-8-8b-8-6---------6---|x2---6h8~--8~--8-6-------|

D-8------------------8-6-8-8--8--|  -8---------------8~-8--|

A--------------------------------|  -----------------------|

E--------------------------------|  -----------------------|

 

e--------------------------------|

B--------------------------------|

G---6-6h8-8-8-8b-8-6---------6---|

D-8------------------8-6-8-8--8--| 

A--------------------------------| 

E--------------------------------|

 

   ...it's somebody

e--------|-------------------------------|

B--------|-------------------------------|

G------4/|6---6-----------8-8-8----------|

D------4/|6-6-6--6-12-4---8-8-8----------| x5

A------2/|4-6-4--6-12-4---6-6-6-8-8-8-8--|

E--------|--4----4/10\2---------6-6-6-6--|

 

 bridge

   ...but it's all right!

e----------------------------|

B----------------------------|

G---------------6-6-6-6-6-6--|

D--4-4-4-4-4-4--6-6-6-6-6-6--| x2

A--4-4-4-4-4-4--4-4-4-4-4-4--|

E--2-2-2-2-2-2---------------|

 

riff. 1

 ...lets keep some distance

e--------------------------------------------------------------|

B--------------------------------------------------------------|

G-6-6-6-6------------------6-6-6-6--6-6-6-----------------6----|

D-6-6-6-6--6-6-6-6--4-4-4--6-6-6-6--6-6-6--6--6/8--4-4-4--6----|

A-4-4-4-4--6-6-6-6--4-4-4--4-4-4-4--4-4-4--6--6/8--4-4-4--4----|

E----------4-4-4-4--2-2-2------------------4--4/6--2-2-2-------|

 P.M..............

 

...love is a bitch!!

e----------------------------------------------------|

B----------------------------------------------------|

G-------6-6-6--------------------6-6-6---------------|

D--4-4--6-6-6--6-6-6-8-8-8--4-4--6-6-6--6-6-6-3-3-3--|

A--4-4--4-4-4--6-6-6-8-8-8--4-4--4-4-4--6-6-6-3-3-3--|

E--2-2---------4-4-4-6-6-6--2-2---------4-4-4-1-1-1--|

                                                        

e-------------------------------------------------------|

B-------------------------------------------------------|

G-------6-6-6-------------------------------6-6-6-6-6-6-|

D--4-4--6-6-6--6-6-6-8-8-8--4-4-4-4-6-6-6-6-6-6-6-6-6-6-|

A--4-4--4-4-4--6-6-6-8-8-8--4-4-4-4-6-6-6-6-4-4-4-4-4-4-|

E--2-2---------4-4-4-6-6-6--2-2-2-2-4-4-4-4-------------|

                            P.M........................

 

...love is a bitch!!

e----------------------------------------------------|

B----------------------------------------------------|

G-------6-6-6--------------------6-6-6---------------|

D--4-4--6-6-6--6-6-6-8-8-8--4-4--6-6-6--6-6-6-3-3-3--|

A--4-4--4-4-4--6-6-6-8-8-8--4-4--4-4-4--6-6-6-3-3-3--|

E--2-2---------4-4-4-6-6-6--2-2---------4-4-4-1-1-1--|

 

e--------------------------------------------------------|

B--------------------------------------------------------|

G-------6-6-6-------------------------------6-6-6-6-6-6--|

D--4-4--6-6-6--6-6-6-8-8-8--4-4-4-4-6-6-6-6-6-6-6-6-6-6--|

A--4-4--4-4-4--6-6-6-8-8-8--4-4-4-4-6-6-6-6-4-4-4-4-4-4--|

E--2-2---------4-4-4-6-6-6--2-2-2-2-4-4-4-4--------------|

                                            P.M........

 

Questions to: romero_1985@hotmail.com

Preguntas a:  romero_1985@hotmail.com

     
Добавлено: 07.10.2013
Другие материалы по этой песне:
  • Аккорды и текст

Страница создана 10.03.2012
http://primanota.ru/dover/love-is-a-bitch-chords.htm
Привет, Гость.
Предлагаем пройти революционный курс по гитаре.
Подарок от PrimaNota.Ru, забирай!