PrimaNota.ru - самый крупный в мире бесплатный архив песенных текстов, аккордов, табулатур и нот


Dover - Better Day - текст песни, таба, видео

Регистрация Запомнить меня
Войти через:  Facebook Google Twitter Vk Yandex Mail.ru

Dover - Better Day - текст песни, таба, видео

Печатать
Просмотров: 172
Уроки эстрадного вокала в Санкт-Петербурге
Авторы: Cristina Llanos, Amparo Llanos

------------------------------------------------------------------
Better Day - Dover - I was dead for 7 weeks in the city of angels
------------------------------------------------------------------
Tabbed by:VRawinadS
Tuning:e B G D A E


X = mute
p.m. (.) = palm mute
/ = slide
b = bend 
b() = full bend
p = pull off

Any comments or Questions, email me at victor.rs88@gmail.com

--Intro--
e|----------------------------------------------------|
B|----------------------------------------------------|
G|----------------------------------------------------|
D|--XXXXXXXXXXXXXXXXXXXXX-----------------------------|
A|--XXXXXXXXXXXXXXXXXXXXX-----------------------------|
E|--XXXXXXXXXXXXXXXXXXXXX-----------------------------|

--Verse--
e|----------------------------------------------------|
B|----------------------------------------------------|
G|----------99999-------------------------------------|
D|----66666-99999-99999-44444-------------------------|
A|----66666-77777-99999-44444-------------------------|
E|----44444-------77777-22222-------------------------|
p.m.   . .   . .   . .   . .
all i had to do was to be nice but,no! no! no! i just fucked it up!

e|----------------------------------------------------|
B|----------------------------------------------------|
G|----------99999-------------------------------------|
D|----66666-99999-99999-------------------------------|
A|----66666-77777-99999-------------------------------|
E|----44444-------77777-------------------------------|
p.m.   . .   . .   . .   
it's been like that for my whole life

--Pre chorus--
e|-----------------------------------------------------|
B|-----------------------------------------------------|
G|-------88/99999------------88-99999XXXXX8------------|
D|----66/88/99999/99999---66-88-99999XXXXX8-Let Ring---|
A|----66/66/77777/99999---66-66-77777XXXXX6------------|
E|----44/---------77777---44---------------------------|
and if i was born again it'd be the same/
one thing at a time yeah! i lied yeah!, i'm scared...

--Verse--
e|----------------------------------------------------|
B|----------------------------------------------------|
G|----------99999-------------------------------------|
D|----66666-99999-99999-44444-------------------------|
A|----66666-77777-99999-44444-------------------------|
E|----44444-------77777-22222-------------------------|
p.m.   . .   . .   . .   . .
1,2,3,4,5,6,7,8,9,10,11,12,13 seconds left

e|----------------------------------------------------|
B|----------------------------------------------------|
G|----------99999-------------------------------------|
D|----66666-99999-99999-------------------------------|
A|----66666-77777-99999-------------------------------|
E|----44444-------77777-------------------------------|
p.m.   . .   . .   . .   
it's the tiem i had to run away

--Pre chorus--
e|-----------------------------------------------------|
B|-----------------------------------------------------|
G|-------88/99999------------88-99999XXXXX8------------|
D|----66/88/99999/99999---66-88-99999XXXXX8-Let Ring---|
A|----66/66/77777/99999---66-66-77777XXXXX6------------|
E|----44/---------77777---44---------------------------|
but i forgot and woke up late like everyday/
one thing at a time yeah! i lied yeah!, i'm scared...

--Chorus--

Guitar 1
e|----------------------------------------------------|
B|----------------------------------------------------|
G|---------99999-------88888--------------------------|
D|----XXXX-99999/99999/88888/66666--------------------| X2
A|----XXXX-77777/99999/66666/66666--------------------|
E|----XXXX-------77777-------44444--------------------|
1)i just quit it all i,m not ashamed
i would rather wait for a better day
2)if you would have been with me that day
i know things would be a different way

   
Guitar 2   
       X2             X2            X2            X1    
e|-------------|-----2-----2-|-------------|-------------|----------|
B|-----7-----7-|-------------|-------------|-------------|----------|
G|-------9-----|-------4-----|-----8-8---8-|-----9-9---9-|----------|
D|---9-----9---|---4-----4---|---8-----8---|---9-----9---|--XXXXX---|X2
A|-7-----------|-2-----------|-6-----------|-7-----------|--XXXXX---|
E|-------------|-------------|-------------|-------------|--XXXXX---|

--Bridge--

Guitar 1
e|----------------------------------------------------|
B|----------------------------------------------------|
G|---------99999/44444/88888/99999--------------------|
D|----XXXX-99999/44444/88888/99999--------------------| 
A|----XXXX-77777/22222/66666/77777--------------------|
E|----XXXX--------------------------------------------|

Guitar 2
e|-----------------------------------------------------------|
B|----------------------------4-2------44-22-----------------|
G|-1-3-4b-4b-4b4b-1-3-4b4b-4b-----4-33-------44--------------|
D|-----------------------------------------------------------|
A|-----------------------------------------------------------|
E|-----------------------------------------------------------|

--Verse--
e|----------------------------------------------------|
B|----------------------------------------------------|
G|----------99999-------------------------------------|
D|----66666-99999-99999-44444-------------------------|
A|----66666-77777-99999-44444-------------------------|
E|----44444-------77777-22222-------------------------|
p.m.   . .   . .   . .   . .
all i had to do was to be nice but,no! no! no! i just fucked it up!

e|----------------------------------------------------|
B|----------------------------------------------------|
G|----------99999-------------------------------------|
D|----66666-99999-99999-------------------------------|
A|----66666-77777-99999-------------------------------|
E|----44444-------77777-------------------------------|
p.m.   . .   . .   . .   
it's been like that for my whole life

--Pre chorus--
e|-----------------------------------------------------|
B|-----------------------------------------------------|
G|-------88/99999------------88-99999XXXXX8------------|
D|----66/88/99999/99999---66-88-99999XXXXX8-Let Ring---|
A|----66/66/77777/99999---66-66-77777XXXXX6------------|
E|----44/---------77777---44---------------------------|
and if i was born again it'd be the same/
one thing at a time yeah! i lied yeah!, i'm scared...

--Chorus--

Guitar 1
e|----------------------------------------------------|
B|----------------------------------------------------|
G|---------99999-------88888--------------------------|
D|----XXXX-99999/99999/88888/66666--------------------| X2
A|----XXXX-77777/99999/66666/66666--------------------|
E|----XXXX-------77777-------44444--------------------|
1)i just quit it all i,m not ashamed
i would rather wait for a better day
2)if you would have been with me that day
i know things would be a different way

   
Guitar 2  
       X2             X2            X2            X1    
e|-------------|-----2-----2-|-------------|-------------|----------|
B|-----7-----7-|-------------|-------------|-------------|----------|
G|-------9-----|-------4-----|-----8-8---8-|-----9-9---9-|----------|
D|---9-----9---|---4-----4---|---8-----8---|---9-----9---|--XXXXX---|X2
A|-7-----------|-2-----------|-6-----------|-7-----------|--XXXXX---|
E|-------------|-------------|-------------|-------------|--XXXXX---|

--First Solo--

Guitar 1
e|----------------------------------------------------|
B|----------------------------------------------------|
G|---------99999/44444/88888/99999--------------------|
D|----XXXX-99999/44444/88888/99999--------------------| X2
A|----XXXX-77777/22222/66666/77777--------------------|
E|----XXXX--------------------------------------------|

Guitar 2
e|-----------------------------------------------------------|
B|----------------------------4-2------44-22-----------------|
G|-1-3-4b-4b-4b4b-1-3-4b4b-4b-----4-33-------44--------------|
D|-----------------------------------------------------------|
A|-----------------------------------------------------------|
E|-----------------------------------------------------------|

e|----------------------------------------------------|
B|--2-4-55-5/999-7/4-4/99-7---------------------------|
G|----------/999------------7-8b-8b-8b---6-888--------|
D|-------------------------------------9--------------|
A|----------------------------------------------------|
E|----------------------------------------------------|


--Chorus--

Guitar 1
e|----------------------------------------------------|
B|----------------------------------------------------|
G|---------99999-------88888--------------------------|
D|----XXXX-99999/99999/88888/66666--------------------| X2
A|----XXXX-77777/99999/66666/66666--------------------|
E|----XXXX-------77777-------44444--------------------|
1)i just quit it all i,m not ashamed
i would rather wait for a better day
2)if you would have been with me that day
i know things would be a different way

   
Guitar 2  
       X2             X2            X2            X1    
e|-------------|-----2-----2-|-------------|-------------|----------|
B|-----7-----7-|-------------|-------------|-------------|----------|
G|-------9-----|-------4-----|-----8-8---8-|-----9-9---9-|----------|
D|---9-----9---|---4-----4---|---8-----8---|---9-----9---|--XXXXX---|X2
A|-7-----------|-2-----------|-6-----------|-7-----------|--XXXXX---|
E|-------------|-------------|-------------|-------------|--XXXXX---|

--Second Solo (Outro)--

Guitar 1
e|----------------------------------------------------|
B|----------------------------------------------------|
G|---------99999/44444/88888/99999--------------------|
D|----XXXX-99999/44444/88888/99999--------------------| X2
A|----XXXX-77777/22222/66666/77777--------------------|
E|----XXXX--------------------------------------------|

Guitar 2
e|-----------------------------------------------------------|
B|----------------------------4-2------44-22-----------------|
G|-1-3-4b-4b-4b4b-1-3-4b4b-4b-----4-33-------44--------------|
D|-----------------------------------------------------------|
A|-----------------------------------------------------------|
E|-----------------------------------------------------------|

e|-------------------------------------------------------------------------|
B|--2-4-55-5/999-7/4-4/99-7-----------9b(11)------9-9-9-9-9-9-9-9-9-9-9-9--|
G|----------/999------------7-8b-8b-8--------11p9--------------------------|
D|-------------------------------------------------------------------------|
A|-------------------------------------------------------------------------|
E|-------------------------------------------------------------------------|

Both Guitars (end)
e|----------------------------------------------------|
B|----------------------------------------------------|
G|---88/6---------------------------------------------|
D|---88/6-6-------------------------------------------| 
A|---66/4-6-------------------------------------------|
E|--------4-------------------------------------------|

That's it.
Добавлено: 05.07.2012
Другие материалы по этой песне:
  • Аккорды и текст

Страница создана 20.04.2012
http://primanota.ru/dover/better-day-chords.htm
Привет, Гость.
Предлагаем пройти революционный курс по гитаре.
Подарок от PrimaNota.Ru, забирай!