PrimaNota.ru - самый крупный в мире бесплатный архив песенных текстов, аккордов, табулатур и нот


Dover - Astroman - текст песни, таба, видео

Регистрация Запомнить меня
Войти через:  Facebook Google Twitter Vk Yandex Mail.ru

Dover - Astroman - текст песни, таба, видео

Печатать
Просмотров: 144
Уроки эстрадного вокала в Санкт-Петербурге


group: Dover
Song: astroman
tabed by Jacobo

first (x8)     part 1(x9)   part 2(x4)
5----------    33-55-5-8-   5-8---5-8 
--7-----5-7    -55-77-7-10  ---5-7---
---7-5/7---    ----------   ---------
-----------    ----------   ---------
-----------    ----------   ---------
-----------    ----------   ---------

part 3(x8)     
5-5-5-5-       repeat part 1,2 and 3
-7-7-7-7
--------
--------
--------
--------

 part 4 (x4)    (first(x4).P1,p2,p3,p4
5--3--1-----3-                  
-7--5--3--3--5                     
-----------5--         
-------------              
-------------               
-------------

part 5 begin with the bass guitar and them the guitars continou wiht this:
(x20)    P4,first
3/5-5
-----
-----
-----
-----
-----

in the middel of the part 5 one guitar play this
is dificult to write this part, better for you if you are listening the song:
  (x3)
------- 
-------
-------    
------- -------------10--7--------------10==14
------- 9/11b-9-7-7/9------9/11b-9-7-7/9-------
10b----
-------
        -------------------------------
        9/11b-9-7-7/9===14--17--19--21

if you have problems send e-meal to falcon_reload@hotmail.com

 un saludo a todos los espaсoles 
  -----Ciudalcampo
Добавлено: 22.11.2013
Другие материалы по этой песне:
  • Аккорды и текст

Страница создана 04.06.2012
http://primanota.ru/dover/astroman-chords.htm
Привет, Гость.
Предлагаем пройти революционный курс по гитаре.
Подарок от PrimaNota.Ru, забирай!