PrimaNota.ru - самый крупный в мире бесплатный архив песенных текстов, аккордов, табулатур и нот


Dover - 27 Years - текст песни, таба, видео

Регистрация Запомнить меня
Войти через:  Facebook Google Twitter Vk Yandex Mail.ru

Dover - 27 Years - текст песни, таба, видео

Печатать
Просмотров: 160
Авторы: Cristina Llanos, Amparo Llanos

-------------------------------------------------------------------------------
                             27 YEARS - Dover
-------------------------------------------------------------------------------
Tabbed by:Luis Gustavo Hernández Collado
Email:ltavo_87@hotmail.com

Tuning:DADGBe

Intro/Verse 1
(Band on the run, was all that I could sing...)
e|---------------------------------------------|
B|---------------------------------------------|
G|---66666666---88888888-----------------------|
D|---66666666---88888888---88888888---66666666-|
A|-4-4-4-4-4--6-6-6-6-6----88888888---66666666-|
D|-----------------------8-8-8-8-8--6-6-6-6-6--|

e|-----------------------------|
B|-----------------------------|
G|-666666-888888---------------|
D|-666666-888888-888888-666666-|
A|-444444-666666-888888-666666-|
D|---------------888888-666666-|

Pre-chorus 1
(Now I know, and you'll see, would you black my eyes for me?...)
e|----------------------------|
B|----------------------------|
G|----------------------------|
D|-888-6-4r-444-888-666-8-11r-|
A|-888-6-4r-444-888-666-8-11r-|
D|-888-6-4r-444-888-666-8-11r-|
r=let ring

Chorus 1
('Cause I can't forget my fears, well they've been with me for 27 years...)
e|------------------------------------|
B|------------------------------------|
G|-666666-----------------------------|
D|-666666-888888-666666-888-666-8-11r-|
A|-444444-888888-666666-888-666-8-11r-|
D|--------888888-666666-888-666-8-11r-|
r=let ring

Verse 2
(Band on the run, wish taht you were here...)
e|----------------|
B|----------------|
G|-6r--8r---------|
D|-6r--8r--8r--6r-|
A|-4r--6r--8r--6r-|
D|---------8r--6r-|
r=let ring

e|-----------------------------|
B|-----------------------------|
G|-666666-888888---------------|
D|-666666-888888-888888-666666-|
A|-444444-666666-888888-666666-|
D|---------------888888-666666-|

Pre-chorus 2
(Now I know, and you'll see, would you black my eyes for me?...)
e|----------------------------|
B|----------------------------|
G|----------------------------|
D|-888-6-4r-444-888-666-8-11r-|
A|-888-6-4r-444-888-666-8-11r-|
D|-888-6-4r-444-888-666-8-11r-|
r=let ring

Chorus 2
('Cause I can't forget my fears, well they've been with me for 27 years...)
e|------------------------------------|
B|------------------------------------|
G|-666666-----------------------------|
D|-666666-888888-666666-888-666-8-11r-|
A|-444444-888888-666666-888-666-8-11r-|
D|--------888888-666666-888-666-8-11r-|
r=let ring

Interlude
e|------------------------|
B|------------------------|
G|-6r--8r-----------------|
D|-6r--8r--888-666-888-11-|
A|-4r--6r--888-666-888-11-|
D|---------888-666-888-11-|
r=let ring

Solo
e|---------------------------------------------------------|
B|------9-6------------99-6-------9-11-11----9-11-9-6------|
G|-10-8-----8-6r-66-10------8r-10---------10----------8-6r-|
D|---------------------------------------------------------|
A|---------------------------------------------------------|
D|---------------------------------------------------------|

Pre-chorus 3
(Now I know, and you'll see, would you black my eyes for me?...)
e|----------------------------|
B|----------------------------|
G|----------------------------|
D|-888-6-4r-444-888-666-8-11r-|
A|-888-6-4r-444-888-666-8-11r-|
D|-888-6-4r-444-888-666-8-11r-|
r=let ring

Chorus 3/Outro
('Cause I can't forget my fears, well they've been with me for 27 years...)
e|------------------------------------|
B|------------------------------------|
G|-666666-----------------------------|X2
D|-666666-888888-666666-888-666-8-11r-|
A|-444444-888888-666666-888-666-8-11r-|
D|--------888888-666666-888-666-8-11r-|
r=let ring
Добавлено: 30.06.2012
Другие материалы по этой песне:
  • Аккорды и текст

Страница создана 05.05.2012
http://primanota.ru/dover/27-years-chords.htm
Привет, Гость.
Предлагаем пройти революционный курс по гитаре.
Подарок от PrimaNota.Ru, забирай!