PrimaNota.ru - самый крупный в мире бесплатный архив песенных текстов, аккордов, табулатур и нот


Dougie Maclean - Mhairi Bhan - таба, видео

Регистрация Запомнить меня
Войти через:  Facebook Google Twitter Vk Yandex Mail.ru

Dougie Maclean - Mhairi Bhan - таба, видео

Печатать
Просмотров: 77
Artist: Dougie MacLean
Song: Mhairi Bhan
Capo: IV
Tuning: Open C Tuning [CGCGCE]
Pattern: Finger Picking
Tablature by: Keiren A. W. Scott


(Introduction)
E|-------------------------------------------------------------------------------------------|
C|-----2-----------0--------------------0-----2-------0--------------------0----------0------|
G|--------3-----------0--------------0-----------3-------0--------------3----------3---------|
C|-----------5----------2--------0-----------------5--------2-------3-----------3------------|
G|--------------------------3-s-5-------------------------------3--1----------1--------------|
C|--0----------------------------------------0-----------------------------------------------|  (x3)

E|-------------------------------------------------------------------------------------------|
C|-----2-----------0--------------------0--------------0---------------0--------------0------|
G|--------3-----------0--------------0-------------0---------------0--------------0----------|
C|-----------5----------2--------0-------------0---------------0--------------0--------------|
G|--------------------------3-s-5----------5---------------5--------------5------------------|
C|--0----------------------------------------------------------------------------------------|

(Verse 1 + tab)
E|-------------------------------------------------------------------------------------------|
C|---------------0----------0-----------0----------0----------0----------0--------0--------0-|
G|-------------0-----------0----------0----------0----------0---------0---------0---------0--|
C|-----------0-----------0----------5----------5----------5----------5---------0---------0---|
G|---------5----------5-----------3----------3----------3----------3----------5---------5----|
C|-------------------------------------------------------------------------------------------|
Oh the sky was                   shaking as we           turned   her     round


E|-------------------------------------------------------------------------------------------|
C|---------------0----------0-----------2----------0----------0----------0--------2--------0-|
G|-------------3-----------3----------0----------0----------3---------3---------0---------0--|
C|-----------3-----------3----------2----------2----------3----------3---------2---------2---|
G|---------1----------1-----------0----------0----------1----------1----------0---------0----|
C|-------------------------------------------------------------------------------------------|
Through the crashing          spray    of      the      Cullin         Sound

E|-------------------------------------------------------------------------------------------|
C|---------------0----------0-----------0----------0----------0----------0--------0--------0-|
G|-------------0-----------0----------0----------0----------0---------0---------0---------0--|
C|-----------0-----------0----------5----------5----------5----------5---------0---------0---|
G|---------5----------5-----------3----------3----------3----------3----------5---------5----|
C|-------------------------------------------------------------------------------------------|
And all hands were              silent  on      that      Final           Day


E|--------------------------------------------------------------------------------------------|
C|---------------0----------0-----------2----------0----------0----------0--------0--------0--|
G|-------------3-----------3----------0----------0----------0---------0---------3---------3---|
C|-----------3-----------3----------2----------2----------0----------0---------3---------3----|
G|---------1----------1-----------0----------0----------5---------5----------1---------1------|
C|--------------------------------------------------------------------------------------------|
  As  we sailed the              Mhairi  Bhan            Home

(Verse 2)
And that tired old lady she had served us well
Through the straits and calms to the banks of Hell
And all hearts were broken on that final day
As we sailed the Mhairi Bhan home

(Chorus)
E|-------------------------------------------------------------------------------------------|
C|---------------3----------3-----------0----------0----------0----------0--------0--------0-|
G|-------------0-----------0----------3----------3----------3---------3---------3---------3--|
C|-----------3-----------3----------2----------2----------3----------3---------3---------3---|
G|---------------------------------3----------3----------1----------1----------1---------1---|
C|---------3---------3-----------------------------------------------------------------------|
           Ho      ro           we           oh         with the wind she braved us

E|-------------------------------------------------------------------------------------------|
C|---------------3----------3-----------0----------0----------0----------0--------0--------0-|
G|-------------0-----------0----------3----------3----------3---------3---------3---------3--|
C|-----------3-----------3----------2----------2----------3----------3---------3---------3---|
G|---------------------------------3----------3----------1----------1----------1---------1---|
C|---------3---------3-----------------------------------------------------------------------|
           Ho      ro           we           oh         across the waves she sailed us

E|-------------------------------------------------------------------------------------------|
C|---------------3----------3-----------0----------0----------0----------0--------0--------0-|
G|-------------0-----------0----------3----------3----------3---------3---------3---------3--|
C|-----------3-----------3----------2----------2----------3----------3---------3---------3---|
G|---------------------------------3----------3----------1----------1----------1---------1---|
C|---------3---------3-----------------------------------------------------------------------|
           Ho      ro           we           oh         children of the sea


(Verse 3)
Now a man is foolish if he thinks he knows
All of times delusions, its ebbs and flows
But all eyes were empty on that final day
As we sailed the Mhairi Bhan home

(Verse 4)
And we have the children and their growth to feed
But there's no relaxing our nation's greed
And all future perished on that final day
As we sailed the Mhairi Bhan home

(Chorus)

(Verse 5)
He is our captain and he is a brave and rolling man
A salty dog we all agree
He tells us stories of the fishing in his father's time
That we find just too hard to believe

(Verse 6)
He is our captain and he's not afraid to face the wind
And with the wind he's not afraid to run
But poor progress has put his ship upon these rugged
rocks lean

(Chorus x2)
Добавлено: 24.10.2013
Другие материалы по этой песне:
  • Аккорды и текст

Страница создана 24.10.2013
http://primanota.ru/dougie-maclean/mhairi-bhan-chords.htm
Привет, Гость.
Предлагаем пройти революционный курс по гитаре.
Подарок от PrimaNota.Ru, забирай!