PrimaNota.ru - самый крупный в мире бесплатный архив песенных текстов, аккордов, табулатур и нот


Dougie Maclean - Garden valley - таба, видео

Регистрация Запомнить меня
Войти через:  Facebook Google Twitter Vk Yandex Mail.ru

Dougie Maclean - Garden valley - таба, видео

Печатать
Просмотров: 89



Date: Mon, 22 Jun 1998 10:17:11 -0400
From: Nathan Sitkoff 
Subject:  m/dougie_maclean/garden_valley.tab

Garden Valley
By Dougie MacLean
Tablature by Nathan Sitkoff (sitkoff@cs.umass.edu)
... with thanks to Tom Allan

Capo 2, tuning DADABD

This is (I think) the same tuning and chord forms used in
She Loves Me (When I Try). The s5 is a rapid slide with
the ring finger up to the 5th fret.  As usual, there are no
guarantees and comments are welcome.


  Bm      A        D                A       D                G
D ------0-------0||------0-------0-|------0-------0-|------0-------0-|
B ----2----------||----------------|----------------|----------------|
A ------------0--||----0-------0---|----0-------0---|----0-------0---|
D --4-------2----||--0-------0-----|--2-------0-----|--0-------0-----|
A 2-------0------||s5------5-------|0-------s5------|5---------------|
D ---------------||----------------|----------------|--------5-------|

                   This is..
                   I'm ..

  D/F#    A        D                A       Bm       G       A
D ------0-------0-|------0-------0-|------0-------0-|------0-------0-|
B ----------------|----------------|------------2---|----------------|
A ----0-------0---|----0-------0---|----0-----------|----0-------0---|
D --0-------2-----|--0-------0-----|--2-------4-----|--0-------2-----|
A --------0-------|s5------5-------|0-------2-------|--------0-------|
D 4---------------|----------------|----------------|5---------------|

  lovely..
  stranger's ..

  D(1)             D(2)             G       D/F#     A       D
D ------0-------0||------4---0-----|------0-------0-|------0-------0-|
B ---------------||----------------|----------------|----------------|
A ----0-------0--||----0---------0-|----0-------0---|----0-------0---|
D --0-------0----||--0---------0---|--0-------0-----|--2-------0-----|
A s5------5------||s5------5-------|----------------|0-------s5------|
D ---------------||----------------|5-------4-------|----------------|

                               But in the..

  G       D/F#     A       Bm       D                A       D
D ------0-------0-|------0-------0-|------0-------0-|------0-------0-|
B ----------------|------------2---|----------------|----------------|
A ----0-------0---|----0-----------|----0-------0---|----0-------0---|
D --0-------0-----|--2-------4-----|--0-------0-----|--2-------0-----|
A ----------------|0-------2-------|s5------5-------|0-------s5------|
D 5-------4-------|----------------|----------------|----------------|

  I think..
 
                   A       D                         A       Bm
D ------0-------0-|------0-------0-|------0-------0-|------0-------0-|
B ----------------|----------------|----------------|------------2---|
A ----0-------0---|----0-------0---|----0-------0---|----0-----------|
D --0-------0-----|--2-------0-----|--0-------0-----|--2-------4-----|
A 5-------5-------|0-------s5------|5-------5-------|0-------2-------|
D ----------------|----------------|----------------|----------------|
  Singing ..


  G       A        D                Bm      A        D (strum)
D ------0-------0-|------0-------0||------0-------0-|4---------------|
B ----------------|---------------||----2-----------|3---------------|
A ----0-------0---|----0-------0--||------------0---|0---------------|
D --0-------2-----|--0-------0----||--4-------2-----|0---------------|
A --------0-------|s5------5------||2-------0-------|5---------------|
D 5---------------|---------------||----------------|----------------|
  there's ..


Добавлено: 02.01.2014
Другие материалы по этой песне:
  • Аккорды и текст

Страница создана 02.01.2014
http://primanota.ru/dougie-maclean/garden-valley-chords.htm
Привет, Гость.
Предлагаем пройти революционный курс по гитаре.
Подарок от PrimaNota.Ru, забирай!