PrimaNota.ru - самый крупный в мире бесплатный архив песенных текстов, аккордов, табулатур и нот


Doughboys - Shine - аккорды и текст, таба, видео

Регистрация Запомнить меня
Войти через:  Facebook Google Twitter Vk Yandex Mail.ru

Doughboys - Shine - аккорды и текст, таба, видео

Печатать
Просмотров: 118
Shine
Doughboys
		   -##

Titre:         Shine
Groupe:        Doughboys
Album:         Crush
Ecrit Par:     Doughboys
Transcrit Par: B.Lamoureux
----------------------------------------------------------------------
I just wrote the chord, find the rhytm by yourself...
----------------------------------------------------------------------




riff 1
p.m............................................................
|----------------------------------------------------------------|-------
|----------------------------------------------------------------|-------
|-9-9-9-9-9-9-9-9-9-9-9-9-9-9-9-9-9-9-9-9-9-9-9-9-9--9--9--9-9-9-|-------
|-6-6-6-7-7-7-9-9-6-6-6-7-7-7-9-9-6-6-6-7-7-7-9-9-11-11-11-9-9-7-|-------
|----------------------------------------------------------------|-------
|----------------------------------------------------------------|-------




                 with fill 1                   riff 1
|----------------------------------------------|--------|----------------
|----------------------------------------------|--------|----------------
|-9-----6---------9-----6-----9-----6-----2----|--------|4--2--4--2--4-2-
|-9--7--6--4--7---9--7--6--4--9--7--6--4--2--4-|--------|4--2--4--2--4-2-
|-7--7--4--4--7---7--7--4--4--7--7--4--4--0--4-|--------|2--0--2--0--2-0-
|----5-----2--5------5-----2-----5-----2-----2-|--------|----------------




                                        p.m...
|--------------------------|-------------|--------------------------|----
|--------------------------|-------------|--------------------------|----
|-----4--2--------4--2-----|-9-----6-----|-------6------------------|----
|--2--4--2--4--2--4--2--4--|-9--7--6--7--|-2--7--6--4--6--4--6--4---|----
|--2--2--0--4--2--2--0--4--|-7--7--4--7--|-2--7--4--4--6--4--6--4---|----
|--0--------2--0--------2--|----5-----5--|-0--5-----2--4--2--4--2---|----


play these
chord under
the solo :               4 times        riff 1 on outro...
|------------------------|-------------|---------------------------------
|------------------------|-------------|---------------------------------
|-4--2--4--2--4--2--4--2-|----4--2-----|---------------------------------
|-4--2--4--2--4--2--4--2-|-2--4--2--4--|---------------------------------
|-2--0--2--0--2--0--2--0-|-2--2--0--4--|---------------------------------
|------------------------|-0--------2--|---------------------------------




fill 1
|-7------------7--|------------------------------------------------------
|-----------9-----|------------------------------------------------------
|---------9-------|------------------------------------------------------
|-------7---------|------------------------------------------------------
|-----------------|------------------------------------------------------
|-----------------|------------------------------------------------------     
Добавлено: 24.07.2013
Вам также может быть интересно:
Другие материалы по этой песне:
  • Аккорды и текст

Страница создана 29.05.2012
http://primanota.ru/doughboys/shine-chords.htm
Привет, Гость.
Предлагаем пройти революционный курс по гитаре.
Подарок от PrimaNota.Ru, забирай!